  0
SECTION
  2
HEADER
  9
$ACADVER
  1
AC1021
  9
$ACADMAINTVER
 70
    25
  9
$DWGCODEPAGE
  3
ANSI_1252
  9
$INSBASE
 10
0.0
 20
0.0
 30
0.0
  9
$EXTMIN
 10
1.000000000000000E+20
 20
1.000000000000000E+20
 30
1.000000000000000E+20
  9
$EXTMAX
 10
-1.000000000000000E+20
 20
-1.000000000000000E+20
 30
-1.000000000000000E+20
  9
$LIMMIN
 10
0.0
 20
0.0
  9
$LIMMAX
 10
12.0
 20
9.0
  9
$ORTHOMODE
 70
     0
  9
$REGENMODE
 70
     1
  9
$FILLMODE
 70
     1
  9
$QTEXTMODE
 70
     0
  9
$MIRRTEXT
 70
     1
  9
$LTSCALE
 40
1.0
  9
$ATTMODE
 70
     1
  9
$TEXTSIZE
 40
0.2
  9
$TRACEWID
 40
0.05
  9
$TEXTSTYLE
  7
Standard
  9
$CLAYER
  8
0
  9
$CELTYPE
  6
ByLayer
  9
$CECOLOR
 62
   256
  9
$CELTSCALE
 40
1.0
  9
$DISPSILH
 70
     0
  9
$DIMSCALE
 40
1.0
  9
$DIMASZ
 40
0.18
  9
$DIMEXO
 40
0.0625
  9
$DIMDLI
 40
0.38
  9
$DIMRND
 40
0.0
  9
$DIMDLE
 40
0.0
  9
$DIMEXE
 40
0.18
  9
$DIMTP
 40
0.0
  9
$DIMTM
 40
0.0
  9
$DIMTXT
 40
0.18
  9
$DIMCEN
 40
0.09
  9
$DIMTSZ
 40
0.0
  9
$DIMTOL
 70
     0
  9
$DIMLIM
 70
     0
  9
$DIMTIH
 70
     1
  9
$DIMTOH
 70
     1
  9
$DIMSE1
 70
     0
  9
$DIMSE2
 70
     0
  9
$DIMTAD
 70
     0
  9
$DIMZIN
 70
     0
  9
$DIMBLK
  1

  9
$DIMASO
 70
     1
  9
$DIMSHO
 70
     1
  9
$DIMPOST
  1

  9
$DIMAPOST
  1

  9
$DIMALT
 70
     0
  9
$DIMALTD
 70
     2
  9
$DIMALTF
 40
25.4
  9
$DIMLFAC
 40
1.0
  9
$DIMTOFL
 70
     0
  9
$DIMTVP
 40
0.0
  9
$DIMTIX
 70
     0
  9
$DIMSOXD
 70
     0
  9
$DIMSAH
 70
     0
  9
$DIMBLK1
  1

  9
$DIMBLK2
  1

  9
$DIMSTYLE
  2
STANDARD_ACAD
  9
$DIMCLRD
 70
     0
  9
$DIMCLRE
 70
     0
  9
$DIMCLRT
 70
     0
  9
$DIMTFAC
 40
1.0
  9
$DIMGAP
 40
0.09
  9
$DIMJUST
 70
     0
  9
$DIMSD1
 70
     0
  9
$DIMSD2
 70
     0
  9
$DIMTOLJ
 70
     1
  9
$DIMTZIN
 70
     0
  9
$DIMALTZ
 70
     0
  9
$DIMALTTZ
 70
     0
  9
$DIMUPT
 70
     0
  9
$DIMDEC
 70
     4
  9
$DIMTDEC
 70
     4
  9
$DIMALTU
 70
     2
  9
$DIMALTTD
 70
     2
  9
$DIMTXSTY
  7
Standard
  9
$DIMAUNIT
 70
     0
  9
$DIMADEC
 70
     0
  9
$DIMALTRND
 40
0.0
  9
$DIMAZIN
 70
     0
  9
$DIMDSEP
 70
    46
  9
$DIMATFIT
 70
     3
  9
$DIMFRAC
 70
     0
  9
$DIMLDRBLK
  1

  9
$DIMLUNIT
 70
     2
  9
$DIMLWD
 70
    -2
  9
$DIMLWE
 70
    -2
  9
$DIMTMOVE
 70
     2
  9
$DIMFXL
 40
1.0
  9
$DIMFXLON
 70
     0
  9
$DIMJOGANG
 40
0.7853981633974483
  9
$DIMTFILL
 70
     0
  9
$DIMTFILLCLR
 70
     0
  9
$DIMARCSYM
 70
     0
  9
$DIMLTYPE
  6

  9
$DIMLTEX1
  6

  9
$DIMLTEX2
  6

  9
$LUNITS
 70
     2
  9
$LUPREC
 70
     3
  9
$SKETCHINC
 40
0.1
  9
$FILLETRAD
 40
0.5
  9
$AUNITS
 70
     0
  9
$AUPREC
 70
     0
  9
$MENU
  1
.
  9
$ELEVATION
 40
0.0
  9
$PELEVATION
 40
0.0
  9
$THICKNESS
 40
0.0
  9
$LIMCHECK
 70
     0
  9
$CHAMFERA
 40
0.0
  9
$CHAMFERB
 40
0.0
  9
$CHAMFERC
 40
0.0
  9
$CHAMFERD
 40
0.0
  9
$SKPOLY
 70
     0
  9
$TDCREATE
 40
2460490.593804121
  9
$TDUCREATE
 40
2460490.260470787
  9
$TDUPDATE
 40
2460490.593824306
  9
$TDUUPDATE
 40
2460490.260490972
  9
$TDINDWG
 40
0.0000000116
  9
$TDUSRTIMER
 40
0.0000000116
  9
$USRTIMER
 70
     1
  9
$ANGBASE
 50
0.0
  9
$ANGDIR
 70
     0
  9
$PDMODE
 70
     0
  9
$PDSIZE
 40
0.0
  9
$PLINEWID
 40
0.0
  9
$SPLFRAME
 70
     0
  9
$SPLINETYPE
 70
     6
  9
$SPLINESEGS
 70
     8
  9
$HANDSEED
  5
1D6
  9
$SURFTAB1
 70
     6
  9
$SURFTAB2
 70
     6
  9
$SURFTYPE
 70
     6
  9
$SURFU
 70
     6
  9
$SURFV
 70
     6
  9
$UCSBASE
  2

  9
$UCSNAME
  2

  9
$UCSORG
 10
0.0
 20
0.0
 30
0.0
  9
$UCSXDIR
 10
1.0
 20
0.0
 30
0.0
  9
$UCSYDIR
 10
0.0
 20
1.0
 30
0.0
  9
$UCSORTHOREF
  2

  9
$UCSORTHOVIEW
 70
     0
  9
$UCSORGTOP
 10
0.0
 20
0.0
 30
0.0
  9
$UCSORGBOTTOM
 10
0.0
 20
0.0
 30
0.0
  9
$UCSORGLEFT
 10
0.0
 20
0.0
 30
0.0
  9
$UCSORGRIGHT
 10
0.0
 20
0.0
 30
0.0
  9
$UCSORGFRONT
 10
0.0
 20
0.0
 30
0.0
  9
$UCSORGBACK
 10
0.0
 20
0.0
 30
0.0
  9
$PUCSBASE
  2

  9
$PUCSNAME
  2

  9
$PUCSORG
 10
0.0
 20
0.0
 30
0.0
  9
$PUCSXDIR
 10
1.0
 20
0.0
 30
0.0
  9
$PUCSYDIR
 10
0.0
 20
1.0
 30
0.0
  9
$PUCSORTHOREF
  2

  9
$PUCSORTHOVIEW
 70
     0
  9
$PUCSORGTOP
 10
0.0
 20
0.0
 30
0.0
  9
$PUCSORGBOTTOM
 10
0.0
 20
0.0
 30
0.0
  9
$PUCSORGLEFT
 10
0.0
 20
0.0
 30
0.0
  9
$PUCSORGRIGHT
 10
0.0
 20
0.0
 30
0.0
  9
$PUCSORGFRONT
 10
0.0
 20
0.0
 30
0.0
  9
$PUCSORGBACK
 10
0.0
 20
0.0
 30
0.0
  9
$USERI1
 70
     0
  9
$USERI2
 70
     0
  9
$USERI3
 70
     0
  9
$USERI4
 70
     0
  9
$USERI5
 70
     0
  9
$USERR1
 40
0.0
  9
$USERR2
 40
0.0
  9
$USERR3
 40
0.0
  9
$USERR4
 40
0.0
  9
$USERR5
 40
0.0
  9
$WORLDVIEW
 70
     1
  9
$SHADEDGE
 70
     3
  9
$SHADEDIF
 70
    70
  9
$TILEMODE
 70
     1
  9
$MAXACTVP
 70
    64
  9
$PINSBASE
 10
0.0
 20
0.0
 30
0.0
  9
$PLIMCHECK
 70
     0
  9
$PEXTMIN
 10
1.000000000000000E+20
 20
1.000000000000000E+20
 30
1.000000000000000E+20
  9
$PEXTMAX
 10
-1.000000000000000E+20
 20
-1.000000000000000E+20
 30
-1.000000000000000E+20
  9
$PLIMMIN
 10
0.0
 20
0.0
  9
$PLIMMAX
 10
12.0
 20
9.0
  9
$UNITMODE
 70
     0
  9
$VISRETAIN
 70
     1
  9
$PLINEGEN
 70
     0
  9
$PSLTSCALE
 70
     1
  9
$TREEDEPTH
 70
  3020
  9
$CMLSTYLE
  2
Standard
  9
$CMLJUST
 70
     0
  9
$CMLSCALE
 40
1.0
  9
$PROXYGRAPHICS
 70
     1
  9
$MEASUREMENT
 70
     1
  9
$CELWEIGHT
370
    -1
  9
$ENDCAPS
280
     0
  9
$JOINSTYLE
280
     0
  9
$LWDISPLAY
290
     0
  9
$INSUNITS
 70
     4
  9
$HYPERLINKBASE
  1

  9
$STYLESHEET
  1

  9
$XEDIT
290
     1
  9
$CEPSNTYPE
380
     0
  9
$PSTYLEMODE
290
     1
  9
$FINGERPRINTGUID
  2
{d951d923-5390-49f9-9ab4-56deb58dc64f}
  9
$VERSIONGUID
  2
{FAEB1C32-E019-11D5-929B-00C0DF256EC4}
  9
$EXTNAMES
290
     1
  9
$PSVPSCALE
 40
0.0
  9
$OLESTARTUP
290
     0
  9
$SORTENTS
280
   127
  9
$INDEXCTL
280
     0
  9
$HIDETEXT
280
     1
  9
$XCLIPFRAME
290
     0
  9
$HALOGAP
280
     0
  9
$OBSCOLOR
 70
   257
  9
$OBSLTYPE
280
     0
  9
$INTERSECTIONDISPLAY
280
     0
  9
$INTERSECTIONCOLOR
 70
   257
  9
$DIMASSOC
280
     2
  9
$PROJECTNAME
  1

  9
$CAMERADISPLAY
290
     0
  9
$LENSLENGTH
 40
50.0
  9
$CAMERAHEIGHT
 40
0.0
  9
$STEPSPERSEC
 40
2.0
  9
$STEPSIZE
 40
6.0
  9
$3DDWFPREC
 40
2.0
  9
$PSOLWIDTH
 40
0.25
  9
$PSOLHEIGHT
 40
4.0
  9
$LOFTANG1
 40
1.570796326794897
  9
$LOFTANG2
 40
1.570796326794897
  9
$LOFTMAG1
 40
0.0
  9
$LOFTMAG2
 40
0.0
  9
$LOFTPARAM
 70
     7
  9
$LOFTNORMALS
280
     1
  9
$LATITUDE
 40
37.795
  9
$LONGITUDE
 40
-122.394
  9
$NORTHDIRECTION
 40
0.0
  9
$TIMEZONE
 70
 -8000
  9
$LIGHTGLYPHDISPLAY
280
     1
  9
$TILEMODELIGHTSYNCH
280
     1
  9
$CMATERIAL
347
44
  9
$SOLIDHIST
280
     0
  9
$SHOWHIST
280
     1
  9
$DWFFRAME
280
     2
  9
$DGNFRAME
280
     2
  9
$REALWORLDSCALE
290
     1
  9
$INTERFERECOLOR
 62
   256
  9
$CSHADOW
280
     0
  9
$SHADOWPLANELOCATION
 40
0.0
  0
ENDSEC
  0
SECTION
  2
CLASSES
  0
CLASS
  1
ACDBDICTIONARYWDFLT
  2
AcDbDictionaryWithDefault
  3
ObjectDBX Classes
 90
        0
 91
        3
280
     0
281
     0
  0
CLASS
  1
VISUALSTYLE
  2
AcDbVisualStyle
  3
ObjectDBX Classes
 90
     4095
 91
        3
280
     0
281
     0
  0
CLASS
  1
MATERIAL
  2
AcDbMaterial
  3
ObjectDBX Classes
 90
     1153
 91
        3
280
     0
281
     0
  0
CLASS
  1
SCALE
  2
AcDbScale
  3
ObjectDBX Classes
 90
     1153
 91
        3
280
     0
281
     0
  0
CLASS
  1
TABLESTYLE
  2
AcDbTableStyle
  3
ObjectDBX Classes
 90
     4095
 91
        3
280
     0
281
     0
  0
CLASS
  1
MLEADERSTYLE
  2
AcDbMLeaderStyle
  3
ACDB_MLEADERSTYLE_CLASS
 90
     4095
 91
        3
280
     0
281
     0
  0
CLASS
  1
SUN
  2
AcDbSun
  3
SCENEOE
 90
     1153
 91
        3
280
     0
281
     0
  0
CLASS
  1
DICTIONARYVAR
  2
AcDbDictionaryVar
  3
ObjectDBX Classes
 90
        0
 91
        3
280
     0
281
     0
  0
CLASS
  1
CELLSTYLEMAP
  2
AcDbCellStyleMap
  3
ObjectDBX Classes
 90
     1152
 91
        3
280
     0
281
     0
  0
ENDSEC
  0
SECTION
  2
TABLES
  0
TABLE
  2
VPORT
  5
8
330
0
100
AcDbSymbolTable
 70
     1
  0
VPORT
  5
29
330
8
100
AcDbSymbolTableRecord
100
AcDbViewportTableRecord
  2
*Active
 70
     0
 10
0.0
 20
0.0
 11
1.0
 21
1.0
 12
10.42990654205607
 22
4.5
 13
0.0
 23
0.0
 14
0.5
 24
0.5
 15
0.5
 25
0.5
 16
0.0
 26
0.0
 36
1.0
 17
0.0
 27
0.0
 37
0.0
 40
9.0
 41
1.972972972850329
 42
50.0
 43
0.0
 44
0.0
 50
0.0
 51
0.0
 71
     0
 72
   100
 73
     1
 74
     3
 75
     0
 76
     0
 77
     0
 78
     0
281
     0
 65
     1
110
0.0
120
0.0
130
0.0
111
1.0
121
0.0
131
0.0
112
0.0
122
1.0
132
0.0
 79
     0
146
0.0
348
2F
 60
     3
 61
     5
292
     1
282
     1
141
0.0
142
0.0
 63
   250
361
6D
  0
ENDTAB
  0
TABLE
  2
LTYPE
  5
5
330
0
100
AcDbSymbolTable
 70
     1
  0
LTYPE
  5
14
330
5
100
AcDbSymbolTableRecord
100
AcDbLinetypeTableRecord
  2
ByBlock
 70
     0
  3

 72
    65
 73
     0
 40
0.0
  0
LTYPE
  5
15
330
5
100
AcDbSymbolTableRecord
100
AcDbLinetypeTableRecord
  2
ByLayer
 70
     0
  3

 72
    65
 73
     0
 40
0.0
  0
LTYPE
  5
16
330
5
100
AcDbSymbolTableRecord
100
AcDbLinetypeTableRecord
  2
Continuous
 70
     0
  3
Solid line
 72
    65
 73
     0
 40
0.0
  0
ENDTAB
  0
TABLE
  2
LAYER
  5
2
330
0
100
AcDbSymbolTable
 70
     1
  0
LAYER
  5
10
330
2
100
AcDbSymbolTableRecord
100
AcDbLayerTableRecord
  2
0
 70
     0
 62
    18
420
        0
  6
Continuous
370
    -3
390
F
347
46
  0
ENDTAB
  0
TABLE
  2
STYLE
  5
3
330
0
100
AcDbSymbolTable
 70
     1
  0
STYLE
  5
11
330
3
100
AcDbSymbolTableRecord
100
AcDbTextStyleTableRecord
  2
Standard
 70
     0
 40
0.0
 41
1.0
 50
0.0
 71
     0
 42
0.2
  3
txt
  4

  0
ENDTAB
  0
TABLE
  2
VIEW
  5
6
330
0
100
AcDbSymbolTable
 70
     0
  0
ENDTAB
  0
TABLE
  2
UCS
  5
7
330
0
100
AcDbSymbolTable
 70
     0
  0
ENDTAB
  0
TABLE
  2
APPID
  5
9
330
0
100
AcDbSymbolTable
 70
     2
  0
APPID
  5
12
330
9
100
AcDbSymbolTableRecord
100
AcDbRegAppTableRecord
  2
ACAD
 70
     0
  0
APPID
  5
1CE
330
9
100
AcDbSymbolTableRecord
100
AcDbRegAppTableRecord
  2
ACAD_MLEADERVER
 70
     0
  0
ENDTAB
  0
TABLE
  2
DIMSTYLE
  5
A
330
0
100
AcDbSymbolTable
 70
     1
100
AcDbDimStyleTable
  0
DIMSTYLE
105
27
330
A
100
AcDbSymbolTableRecord
100
AcDbDimStyleTableRecord
  2
STANDARD_ACAD
 70
     0
178
     0
340
11
  0
ENDTAB
  0
TABLE
  2
BLOCK_RECORD
  5
1
330
0
100
AcDbSymbolTable
 70
     1
  0
BLOCK_RECORD
  5
1F
330
1
100
AcDbSymbolTableRecord
100
AcDbBlockTableRecord
  2
*Model_Space
340
22
 70
     0
280
     1
281
     0
  0
BLOCK_RECORD
  5
1B
330
1
100
AcDbSymbolTableRecord
100
AcDbBlockTableRecord
  2
*Paper_Space
340
1E
 70
     0
280
     1
281
     0
  0
BLOCK_RECORD
  5
23
330
1
100
AcDbSymbolTableRecord
100
AcDbBlockTableRecord
  2
*Paper_Space0
340
26
 70
     0
280
     1
281
     0
  0
ENDTAB
  0
ENDSEC
  0
SECTION
  2
BLOCKS
  0
BLOCK
  5
20
330
1F
100
AcDbEntity
  8
0
100
AcDbBlockBegin
  2
*Model_Space
 70
     0
 10
0.0
 20
0.0
 30
0.0
  3
*Model_Space
  1

  0
ENDBLK
  5
21
330
1F
100
AcDbEntity
  8
0
100
AcDbBlockEnd
  0
BLOCK
  5
1C
330
1B
100
AcDbEntity
 67
     1
  8
0
100
AcDbBlockBegin
  2
*Paper_Space
 70
     0
 10
0.0
 20
0.0
 30
0.0
  3
*Paper_Space
  1

  0
ENDBLK
  5
1D
330
1B
100
AcDbEntity
 67
     1
  8
0
100
AcDbBlockEnd
  0
BLOCK
  5
24
330
23
100
AcDbEntity
  8
0
100
AcDbBlockBegin
  2
*Paper_Space0
 70
     0
 10
0.0
 20
0.0
 30
0.0
  3
*Paper_Space0
  1

  0
ENDBLK
  5
25
330
23
100
AcDbEntity
  8
0
100
AcDbBlockEnd
  0
ENDSEC
  0
SECTION
  2
ENTITIES
  0
SPLINE
  5
6E
330
1F
100
AcDbEntity
  8
0
100
AcDbSpline
210
0.0
220
0.0
230
1.0
 70
    24
 71
     2
 72
     6
 73
     3
 74
     0
 42
0.000000001
 43
0.0000000001
 40
401.7030633326986
 40
401.7030633326986
 40
401.7030633326986
 40
401.9930633326986
 40
401.9930633326986
 40
401.9930633326986
 10
299.9999999999998
 20
-179.9999999999999
 30
-70.0
 10
299.9999999999999
 20
-34.99999999999991
 30
-70.0
 10
300.0
 20
110.0000000000001
 30
-70.0
  0
SPLINE
  5
6F
330
1F
100
AcDbEntity
  8
0
100
AcDbSpline
210
0.0
220
0.0
230
1.0
 70
    24
 71
     2
 72
     6
 73
     3
 74
     0
 42
0.000000001
 43
0.0000000001
 40
535.5107511102649
 40
535.5107511102649
 40
535.5107511102649
 40
535.9407511102648
 40
535.9407511102648
 40
535.9407511102648
 10
214.9999999999999
 20
195.0000000000001
 30
-70.0
 10
0.0
 20
195.0000000000001
 30
-70.0
 10
-214.9999999999999
 20
195.0000000000001
 30
-70.0
  0
SPLINE
  5
70
330
1F
100
AcDbEntity
  8
0
100
AcDbSpline
210
0.0
220
0.0
230
1.0
 70
    24
 71
     2
 72
     6
 73
     3
 74
     0
 42
0.000000001
 43
0.0000000001
 40
669.4584388878311
 40
669.4584388878311
 40
669.4584388878311
 40
669.7484388878312
 40
669.7484388878312
 40
669.7484388878312
 10
-300.0000000000001
 20
110.0000000000001
 30
-70.0
 10
-300.0
 20
-35.00000000000001
 30
-70.0
 10
-299.9999999999999
 20
-180.0000000000001
 30
-69.99999999999999
  0
SPLINE
  5
71
330
1F
100
AcDbEntity
  8
0
100
AcDbSpline
210
0.0
220
0.0
230
1.0
 70
    24
 71
     2
 72
     6
 73
     3
 74
     0
 42
0.000000001
 43
0.0000000001
 40
803.2661266653973
 40
803.2661266653973
 40
803.2661266653973
 40
803.6961266653973
 40
803.6961266653973
 40
803.6961266653973
 10
-215.0
 20
-264.9999999999998
 30
-70.0
 10
0.0000000000000142
 20
-264.9999999999998
 30
-70.0
 10
215.0
 20
-264.9999999999998
 30
-70.0
  0
SPLINE
  5
72
330
1F
100
AcDbEntity
  8
0
100
AcDbSpline
210
0.0
220
0.0
230
1.0
 70
    24
 71
     3
 72
     8
 73
     4
 74
     0
 42
0.000000001
 43
0.0000000001
 40
189.1557496411982
 40
189.1557496411982
 40
189.1557496411982
 40
189.1557496411982
 40
189.2533690092523
 40
189.2533690092523
 40
189.2533690092523
 40
189.2533690092523
 10
212.0
 20
45.9999999999997
 30
-70.00000000000001
 10
212.0
 20
13.46021063005995
 30
-70.00000000000001
 10
212.0
 20
-19.07957873987981
 30
-70.00000000000001
 10
212.0
 20
-51.61936810981956
 30
-70.00000000000001
  0
SPLINE
  5
73
330
1F
100
AcDbEntity
  8
0
100
AcDbSpline
210
0.0
220
0.0
230
1.0
 70
     8
 71
     3
 72
     8
 73
     4
 74
     0
 42
0.000000001
 43
0.0000000001
 40
252.4261440728462
 40
252.4261440728462
 40
252.4261440728462
 40
252.4261440728462
 40
252.4724828271904
 40
252.4724828271904
 40
252.4724828271904
 40
252.4724828271904
 10
-37.99999999999973
 20
-230.2354051023678
 30
-70.0
 10
-41.86359437020627
 20
-215.2786766868567
 30
-70.0
 10
-45.54601539447241
 20
-200.2777751572975
 30
-70.0
 10
-48.97661721895108
 20
-185.2154758643205
 30
-70.0
  0
SPLINE
  5
74
330
1F
100
AcDbEntity
  8
0
100
AcDbSpline
210
0.0
220
0.0
230
1.0
 70
     8
 71
     3
 72
     8
 73
     4
 74
     0
 42
0.000000001
 43
0.0000000001
 40
252.303805318502
 40
252.303805318502
 40
252.303805318502
 40
252.303805318502
 40
252.3501440728462
 40
252.3501440728462
 40
252.3501440728462
 40
252.3501440728462
 10
48.97661721895116
 20
-185.2154758643206
 30
-70.0
 10
45.54601539447236
 20
-200.2777751572976
 30
-70.00000000000001
 10
41.86359437020631
 20
-215.2786766868567
 30
-70.00000000000001
 10
37.99999999999984
 20
-230.2354051023678
 30
-70.00000000000003
  0
SPLINE
  5
75
330
1F
100
AcDbEntity
  8
0
100
AcDbSpline
210
0.0
220
0.0
230
1.0
 70
    24
 71
     3
 72
     8
 73
     4
 74
     0
 42
0.000000001
 43
0.0000000001
 40
189.2533690092523
 40
189.2533690092523
 40
189.2533690092523
 40
189.2533690092523
 40
189.3469651170625
 40
189.3469651170625
 40
189.3469651170625
 40
189.3469651170625
 10
212.0
 20
-51.61936810981956
 30
-70.00000000000001
 10
212.0
 20
-82.81807069465314
 30
-70.0
 10
212.0000000000001
 20
-114.0167732794867
 30
-70.0
 10
212.0000000000001
 20
-145.2154758643203
 30
-70.0
  0
SPLINE
  5
76
330
1F
100
AcDbEntity
  8
0
100
AcDbSpline
210
0.0
220
0.0
230
1.0
 70
     8
 71
     3
 72
    15
 73
    11
 74
     0
 42
0.000000001
 43
0.0000000001
 40
189.3469651170625
 40
189.3469651170625
 40
189.3469651170625
 40
189.3469651170625
 40
197.2009467404938
 40
205.0549283780471
 40
212.9089100156004
 40
220.762891653154
 40
228.6168732907072
 40
236.4708549282606
 40
244.3248365658138
 40
252.1788181888592
 40
252.1788181888592
 40
252.1788181888592
 40
252.1788181888592
 10
212.0000000000001
 20
-145.2154758643203
 30
-70.0
 10
211.9999999991325
 20
-147.7467728279927
 30
-69.99999999999999
 10
211.5174530087912
 20
-152.872339331184
 30
-69.99999999999999
 10
209.2785768325933
 20
-160.4221152852754
 30
-69.99999999999999
 10
205.5512728851494
 20
-167.479343889289
 30
-69.99999999999999
 10
200.4638950357498
 20
-173.6990554974269
 30
-69.99999999999999
 10
194.2420878078173
 20
-178.7808942870028
 30
-70.0
 10
187.1874833610253
 20
-182.5013506946972
 30
-69.99999999999999
 10
179.6451768720048
 20
-184.7345185323926
 30
-70.0
 10
174.5271668428037
 20
-185.2154758634322
 30
-70.0
 10
171.9999999999995
 20
-185.2154758643206
 30
-70.0
  0
SPLINE
  5
77
330
1F
100
AcDbEntity
  8
0
100
AcDbSpline
210
0.0
220
0.0
230
1.0
 70
     8
 71
     3
 72
    15
 73
    11
 74
     0
 42
0.000000001
 43
0.0000000001
 40
252.5974577771353
 40
252.5974577771353
 40
252.5974577771353
 40
252.5974577771353
 40
260.4514394001804
 40
268.3054210377337
 40
276.159402675287
 40
284.0133843128402
 40
291.8673659503937
 40
299.7213475879472
 40
307.5753292255002
 40
315.4293108489314
 40
315.4293108489314
 40
315.4293108489314
 40
315.4293108489314
 10
-172.0000000000001
 20
-185.2154758643206
 30
-69.99999999999997
 10
-174.5271668428041
 20
-185.2154758634321
 30
-69.99999999999994
 10
-179.6451768720055
 20
-184.7345185323926
 30
-69.99999999999996
 10
-187.1874833610251
 20
-182.5013506946966
 30
-69.99999999999994
 10
-194.2420878078176
 20
-178.780894287003
 30
-69.99999999999996
 10
-200.4638950357504
 20
-173.6990554974268
 30
-69.99999999999996
 10
-205.5512728851488
 20
-167.4793438892887
 30
-69.99999999999997
 10
-209.2785768325942
 20
-160.422115285276
 30
-69.99999999999997
 10
-211.5174530087902
 20
-152.8723393311835
 30
-69.99999999999996
 10
-211.9999999991323
 20
-147.7467728279929
 30
-69.99999999999996
 10
-212.0000000000001
 20
-145.2154758643204
 30
-69.99999999999997
  0
SPLINE
  5
78
330
1F
100
AcDbEntity
  8
0
100
AcDbSpline
210
0.0
220
0.0
230
1.0
 70
     8
 71
     3
 72
    15
 73
    11
 74
     0
 42
0.000000001
 43
0.0000000001
 40
315.6205263247958
 40
315.6205263247958
 40
315.6205263247958
 40
315.6205263247958
 40
323.4745079515295
 40
331.3284895886135
 40
339.1824712256976
 40
347.0364528627816
 40
354.8904344998656
 40
362.7444161369497
 40
370.5983977740337
 40
378.4523793965922
 40
378.4523793965922
 40
378.4523793965922
 40
378.4523793965922
 10
-212.0000000000001
 20
45.9999999999997
 30
-70.0
 10
-211.9999999993517
 20
48.55579313849095
 30
-70.0
 10
-211.5080049959529
 20
53.72376171278955
 30
-70.00000000000001
 10
-209.2386895553167
 20
61.30962747271791
 30
-70.0
 10
-205.4788154537851
 20
68.37397824759755
 30
-69.99999999999999
 10
-200.3694026668242
 20
74.57689626152944
 30
-70.0
 10
-194.1443506607344
 20
79.62803326655157
 30
-70.00000000000001
 10
-187.107450810054
 20
83.31580938214555
 30
-70.00000000000001
 10
-179.6001781061659
 20
85.52486555843201
 30
-70.0
 10
-174.512051906498
 20
85.99999999912127
 30
-69.99999999999999
 10
-171.9999999999997
 20
86.0
 30
-70.0
  0
SPLINE
  5
79
330
1F
100
AcDbEntity
  8
0
100
AcDbSpline
210
0.0
220
0.0
230
1.0
 70
     8
 71
     3
 72
    15
 73
    11
 74
     0
 42
0.000000001
 43
0.0000000001
 40
378.7963793965922
 40
378.7963793965922
 40
378.7963793965922
 40
378.7963793965922
 40
386.6503610191507
 40
394.5043426562347
 40
402.3583242933187
 40
410.2123059304029
 40
418.0662875674868
 40
425.9202692045709
 40
433.7742508416549
 40
441.6282324683886
 40
441.6282324683886
 40
441.6282324683886
 40
441.6282324683886
 10
171.9999999999997
 20
86.0
 30
-70.0
 10
174.512051906498
 20
85.99999999912126
 30
-70.0
 10
179.6001781061653
 20
85.52486555843181
 30
-70.00000000000001
 10
187.1074508100546
 20
83.31580938214567
 30
-70.00000000000001
 10
194.1443506607337
 20
79.62803326655111
 30
-70.00000000000003
 10
200.3694026668252
 20
74.57689626152967
 30
-70.0
 10
205.4788154537844
 20
68.37397824759756
 30
-70.0
 10
209.2386895553172
 20
61.30962747271797
 30
-70.00000000000001
 10
211.5080049959523
 20
53.72376171278947
 30
-70.0
 10
211.9999999993516
 20
48.55579313849097
 30
-70.00000000000001
 10
212.0
 20
45.9999999999997
 30
-70.00000000000001
  0
SPLINE
  5
7A
330
1F
100
AcDbEntity
  8
0
100
AcDbSpline
210
0.0
220
0.0
230
1.0
 70
    24
 71
     2
 72
     6
 73
     3
 74
     0
 42
0.000000001
 43
0.0000000001
 40
259.645897252624
 40
259.645897252624
 40
259.645897252624
 40
260.075897252624
 40
260.075897252624
 40
260.075897252624
 10
215.0
 20
-262.5555461355775
 30
0.0000000000000049
 10
0.0000000000000426
 20
-262.5555461355775
 30
0.0000000000000058
 10
-214.9999999999999
 20
-262.5555461355776
 30
0.0000000000000067
  0
SPLINE
  5
7B
330
1F
100
AcDbEntity
  8
0
100
AcDbSpline
210
0.0
220
0.0
230
1.0
 70
    24
 71
     2
 72
     6
 73
     3
 74
     0
 42
0.000000001
 43
0.0000000001
 40
389.753845878936
 40
389.753845878936
 40
389.753845878936
 40
390.043845878936
 40
390.043845878936
 40
390.043845878936
 10
-297.5555461355775
 20
-180.0000000000001
 30
0.0000000000000026
 10
-297.5555461355776
 20
-35.00000000000003
 30
-0.0000000000000041
 10
-297.5555461355778
 20
110.0
 30
-0.0000000000000108
  0
SPLINE
  5
7C
330
1F
100
AcDbEntity
  8
0
100
AcDbSpline
210
0.0
220
0.0
230
1.0
 70
    24
 71
     2
 72
     6
 73
     3
 74
     0
 42
0.000000001
 43
0.0000000001
 40
519.721794505248
 40
519.721794505248
 40
519.721794505248
 40
520.151794505248
 40
520.151794505248
 40
520.151794505248
 10
-214.9999999999999
 20
192.5555461355777
 30
-0.0000000000000156
 10
0.0
 20
192.5555461355778
 30
-0.0000000000000153
 10
214.9999999999999
 20
192.5555461355778
 30
-0.000000000000015
  0
SPLINE
  5
7D
330
1F
100
AcDbEntity
  8
0
100
AcDbSpline
210
0.0
220
0.0
230
1.0
 70
    24
 71
     2
 72
     6
 73
     3
 74
     0
 42
0.000000001
 43
0.0000000001
 40
649.82974313156
 40
649.82974313156
 40
649.82974313156
 40
650.11974313156
 40
650.11974313156
 40
650.11974313156
 10
297.5555461355777
 20
110.0000000000001
 30
-0.0000000000000064
 10
297.5555461355776
 20
-34.99999999999989
 30
-0.0000000000000018
 10
297.5555461355776
 20
-179.9999999999999
 30
0.0000000000000028
  0
SPLINE
  5
7E
330
1F
100
AcDbEntity
  8
0
100
AcDbSpline
210
0.0
220
0.0
230
1.0
 70
     8
 71
     3
 72
    15
 73
    11
 74
     0
 42
0.000000001
 43
0.0000000001
 40
0.0
 40
0.0
 40
0.0
 40
0.0
 40
13.74446784221455
 40
27.48893570756407
 40
41.23340357291399
 40
54.97787143826351
 40
68.7223393036133
 40
82.46680716896309
 40
96.21127503431286
 40
109.9557428755649
 40
109.9557428755649
 40
109.9557428755649
 40
109.9557428755649
 10
287.5
 20
-181.8225525177357
 30
-0.0000000000000225
 10
287.4999999985667
 20
-186.2709192872294
 30
-0.0000000000000081
 10
286.6484977159687
 20
-195.2656035730327
 30
-0.0000000000000748
 10
282.7179899787755
 20
-208.4808374177004
 30
0.0000000000001257
 10
276.1946846520584
 20
-220.8114241020122
 30
-0.0000000000001202
 10
267.3074856652075
 20
-231.6701274443445
 30
0.0000000000000139
 10
256.4444959673986
 20
-240.546092251227
 30
0.0000000000000019
 10
244.1191626655441
 20
-247.0554876408624
 30
-0.000000000000112
 10
230.9190804295386
 20
-250.9743324783768
 30
0.0000000000000257
 10
221.9398666305845
 20
-251.8225525162485
 30
-0.000000000000013
 10
217.5000000000779
 20
-251.8225525177357
 30
-0.0000000000000031
  0
SPLINE
  5
7F
330
1F
100
AcDbEntity
  8
0
100
AcDbSpline
210
0.0
220
0.0
230
1.0
 70
     8
 71
     3
 72
    15
 73
    11
 74
     0
 42
0.000000001
 43
0.0000000001
 40
110.3907428755661
 40
110.3907428755661
 40
110.3907428755661
 40
110.3907428755661
 40
124.1352107156583
 40
137.8796785808896
 40
151.6241464461206
 40
165.3686143113513
 40
179.1130821765826
 40
192.8575500418136
 40
206.6020179070446
 40
220.3464857480983
 40
220.3464857480983
 40
220.3464857480983
 40
220.3464857480983
 10
-217.5000000010867
 20
-251.8225525177357
 30
0.0000000000000077
 10
-221.9398666312647
 20
-251.8225525161843
 30
0.0000000000000187
 10
-230.9190804298718
 20
-250.9743324782775
 30
0.0000000000000452
 10
-244.1191626655443
 20
-247.0554876408631
 30
0.0000000000000435
 10
-256.4444959673978
 20
-240.5460922512269
 30
0.0000000000000984
 10
-267.3074856652087
 20
-231.6701274443441
 30
-0.0000000000001235
 10
-276.1946846520576
 20
-220.8114241020133
 30
0.000000000000122
 10
-282.7179899787765
 20
-208.4808374176993
 30
-0.0000000000001972
 10
-286.6484977158681
 20
-195.2656035733674
 30
0.0000000000001917
 10
-287.4999999985022
 20
-186.2709192879115
 30
0.0000000000000072
 10
-287.5
 20
-181.8225525187476
 30
0.0000000000000087
  0
SPLINE
  5
80
330
1F
100
AcDbEntity
  8
0
100
AcDbSpline
210
0.0
220
0.0
230
1.0
 70
     8
 71
     3
 72
    15
 73
    11
 74
     0
 42
0.000000001
 43
0.0000000001
 40
220.5394857480956
 40
220.5394857480956
 40
220.5394857480956
 40
220.5394857480956
 40
234.2839536094302
 40
248.0284214723424
 40
261.7728893352547
 40
275.5173571981669
 40
289.2618250610792
 40
303.0062929239914
 40
316.7507607869036
 40
330.4952286239331
 40
330.4952286239331
 40
330.4952286239331
 40
330.4952286239331
 10
-287.5
 20
11.17744747857865
 30
-0.0000000000000014
 10
-287.4999999998975
 20
15.7338883943256
 30
-0.0000000000000285
 10
-286.606579571587
 20
24.90469645932092
 30
-0.0000000000001293
 10
-282.5563300018445
 20
38.24488752821176
 30
0.0000000000000508
 10
-275.9218661496357
 20
50.57464192572637
 30
-0.0000000000000728
 10
-266.9785300506518
 20
61.34535669338675
 30
-0.0000000000000874
 10
-256.1334580953473
 20
70.09715254761828
 30
0.0000000000000953
 10
-243.8909133558683
 20
76.49365770451794
 30
-0.0000000000002265
 10
-230.8090509686302
 20
80.34206935391867
 30
0.0000000000001352
 10
-221.9070947437014
 20
81.17744748069113
 30
-0.0000000000000299
 10
-217.5000000017454
 20
81.17744748226427
 30
-0.0000000000000122
  0
SPLINE
  5
81
330
1F
100
AcDbEntity
  8
0
100
AcDbSpline
210
0.0
220
0.0
230
1.0
 70
     8
 71
     3
 72
    15
 73
    11
 74
     0
 42
0.000000001
 43
0.0000000001
 40
330.9302286239377
 40
330.9302286239377
 40
330.9302286239377
 40
330.9302286239377
 40
344.6746964600125
 40
358.4191643231511
 40
372.1636321862896
 40
385.9081000494282
 40
399.6525679125667
 40
413.3970357757053
 40
427.1415036388439
 40
440.885971496699
 40
440.885971496699
 40
440.885971496699
 40
440.885971496699
 10
217.5000000028814
 20
81.17744748226434
 30
-0.0000000000000051
 10
221.9070947444664
 20
81.17744748061943
 30
-0.0000000000000029
 10
230.8090509690039
 20
80.34206935380838
 30
-0.0000000000002246
 10
243.89091335587
 20
76.49365770451807
 30
0.0000000000003149
 10
256.1334580953462
 20
70.0971525476182
 30
-0.0000000000001823
 10
266.9785300506526
 20
61.34535669338689
 30
0.000000000000167
 10
275.9218661496355
 20
50.57464192572654
 30
-0.0000000000002771
 10
282.5563300018447
 20
38.24488752821168
 30
0.0000000000001562
 10
286.6065795712231
 20
24.90469646052006
 30
-0.0000000000000951
 10
287.4999999996566
 20
15.73388839679834
 30
0.0000000000000042
 10
287.5000000000001
 20
11.17744748226431
 30
-0.0000000000000036
  0
ARC
  5
82
330
1F
100
AcDbEntity
  8
0
100
AcDbCircle
 10
25.00000000000001
 20
-26.88026893794508
 30
-229.9999999999997
 40
1.880268937941601
210
0.0
220
1.0
230
-1.511576820575374E-14
100
AcDbArc
 50
0.0
 51
90.0
  0
LINE
  5
83
330
1F
100
AcDbEntity
  8
0
100
AcDbLine
 10
-26.88026893794162
 20
-223.3058841957717
 30
-26.88026893793885
 11
-26.88026893794161
 21
-230.0000000000001
 31
-26.8802689379416
  0
SPLINE
  5
84
330
1F
100
AcDbEntity
  8
0
100
AcDbSpline
 70
     0
 71
     3
 72
    20
 73
    16
 74
     0
 42
0.000000001
 43
0.0000000001
 40
-0.0076006835023882
 40
-0.0076006835023882
 40
-0.0076006835023882
 40
-0.0076006835023882
 40
-0.0071340426843004
 40
-0.0071340426843004
 40
-0.0068924807795899
 40
-0.0068924807795899
 40
-0.0066509188748793
 40
-0.0066509188748793
 40
-0.0061772653618286
 40
-0.0061772653618286
 40
-0.0056864531796522
 40
-0.0056864531796522
 40
-0.00475617460391
 40
-0.00475617460391
 40
-0.0038088173240971
 40
-0.0038088173240971
 40
-0.0038088173240971
 40
-0.0038088173240971
 10
-25.00000000000005
 20
-225.5244382296066
 30
-24.99999999999999
 10
-25.22851142582075
 20
-225.5234431240171
 30
-24.99999999999989
 10
-25.43259210627717
 20
-225.4743224427056
 30
-25.0417508424696
 10
-25.68929264447258
 20
-225.3718988227481
 30
-25.12846182578452
 10
-25.76776986499382
 20
-225.3320411043578
 30
-25.16214842541511
 10
-25.90645844370268
 20
-225.2507380266923
 30
-25.23110498278208
 10
-25.9684691611639
 20
-225.2085503539252
 30
-25.26704871805732
 10
-26.14380324364114
 20
-225.0741550615443
 30
-25.38148550992771
 10
-26.24359928643414
 20
-224.9760318383993
 30
-25.46504346382505
 10
-26.41418596662981
 20
-224.7758979149401
 30
-25.63507320000464
 10
-26.48177564842447
 20
-224.6784521509699
 30
-25.7178347942803
 10
-26.65920647914189
 20
-224.3784376646374
 30
-25.97265552810391
 10
-26.74577284045824
 20
-224.1624554637798
 30
-26.1562101272267
 10
-26.85681199742504
 20
-223.7261745186529
 30
-26.52588445930733
 10
-26.88026893794163
 20
-223.5058693232972
 30
-26.71152581609149
 10
-26.88026893794162
 20
-223.3058841957717
 30
-26.88026893793885
  0
LINE
  5
85
330
1F
100
AcDbEntity
  8
0
100
AcDbLine
 10
-25.00000000000001
 20
-230.0000000000001
 30
-24.99999999999999
 11
-25.00000000000005
 21
-225.5244382296066
 31
-24.99999999999999
  0
SPLINE
  5
86
330
1F
100
AcDbEntity
  8
0
100
AcDbSpline
 70
     0
 71
     3
 72
    28
 73
    24
 74
     0
 42
0.000000001
 43
0.0000000001
 40
-0.0561357004168697
 40
-0.0561357004168697
 40
-0.0561357004168697
 40
-0.0561357004168697
 40
-0.0491218814270946
 40
-0.0491218814270946
 40
-0.042108124900212
 40
-0.042108124900212
 40
-0.0350944587665629
 40
-0.0350944587665629
 40
-0.0317090518889778
 40
-0.0317090518889778
 40
-0.0280721725586701
 40
-0.0280721725586701
 40
-0.024309313159305
 40
-0.024309313159305
 40
-0.021053706148439
 40
-0.021053706148439
 40
-0.0176679045943569
 40
-0.0176679045943569
 40
-0.0140274797861172
 40
-0.0140274797861172
 40
-0.0070137358462744
 40
-0.0070137358462744
 40
0.0
 40
0.0
 40
0.0
 40
0.0
 10
-0.0000000000088978
 20
-36.00715609119223
 30
-108.5886913069762
 10
-2.358884111595279
 20
-36.00715609119048
 30
-108.5886913069762
 10
-4.711853256526509
 20
-35.77537176817975
 30
-108.603503342427
 10
-9.338586757920348
 20
-34.85497790178599
 30
-108.6601410781805
 10
-11.60085332832602
 20
-34.16865508073567
 30
-108.7018177527612
 10
-15.9583490195944
 20
-32.36367935182968
 30
-108.8041283291778
 10
-18.04298734004742
 20
-31.24941112155343
 30
-108.8644587673475
 10
-20.94991673009396
 20
-29.3071943219938
 30
-108.9594715636454
 10
-21.86119576147265
 20
-28.63387340235181
 30
-108.9910571349963
 10
-23.69140611311893
 20
-27.1427235593313
 30
-109.0573044185162
 10
-24.59422231264121
 20
-26.32746171699288
 30
-109.085066659576
 10
-26.35388380799471
 20
-24.56805317909549
 30
-109.1236958242431
 10
-27.19577676241401
 20
-23.63274233157042
 30
-109.1351008307311
 10
-28.68050203758218
 20
-21.79777306885338
 30
-109.1435102786378
 10
-29.32704413957668
 20
-20.91981243597134
 30
-109.1416505054128
 10
-30.56825776628366
 20
-19.06288239411813
 30
-109.1276339141298
 10
-31.15287664076576
 20
-18.09171380331218
 30
-109.1164301415228
 10
-32.27436229205129
 20
-16.01186156765763
 30
-109.0978687702346
 10
-32.79715009641039
 20
-14.91177903229059
 30
-109.0894284931831
 10
-34.16846957655953
 20
-11.60150011632624
 30
-109.0674698473529
 10
-34.85490965580456
 20
-9.338873727766089
 30
-109.0571742368254
 10
-35.77537019296503
 20
-4.711917267191985
 30
-109.0446473885509
 10
-36.00715609119245
 20
-2.358817388116805
 30
-109.0424028208932
 10
-36.00715609119216
 20
0.0000000000533818
 30
-109.0424028208936
  0
LINE
  5
87
330
1F
100
AcDbEntity
  8
0
100
AcDbLine
 10
0.0
 20
-36.00715609119221
 30
-113.0
 11
-0.0000000000088978
 21
-36.00715609119223
 31
-108.5886913069762
  0
ARC
  5
88
330
1F
100
AcDbEntity
  8
0
100
AcDbCircle
 10
0.0
 20
-0.0000000000000071
 30
-113.0
 40
36.00715609119221
100
AcDbArc
 50
90.00000000000001
 51
270.0
  0
LINE
  5
89
330
1F
100
AcDbEntity
  8
0
100
AcDbLine
 10
0.0000000000038915
 20
36.0071560911922
 30
-109.9692834640859
 11
0.0
 21
36.0071560911922
 31
-113.0
  0
SPLINE
  5
8A
330
1F
100
AcDbEntity
  8
0
100
AcDbSpline
 70
     0
 71
     3
 72
    32
 73
    28
 74
     0
 42
0.000000001
 43
0.0000000001
 40
-0.2242952367899864
 40
-0.2242952367899864
 40
-0.2242952367899864
 40
-0.2242952367899864
 40
-0.2208298903441696
 40
-0.2208298903441696
 40
-0.2173645438983529
 40
-0.2173645438983529
 40
-0.2104338489715188
 40
-0.2104338489715188
 40
-0.2085544853468856
 40
-0.2085544853468856
 40
-0.2066751217222523
 40
-0.2066751217222523
 40
-0.2047957580976191
 40
-0.2047957580976191
 40
-0.2029163944729859
 40
-0.2029163944729859
 40
-0.1994508723947361
 40
-0.1994508723947361
 40
-0.1959853503164864
 40
-0.1959853503164864
 40
-0.1890546718678424
 40
-0.1890546718678424
 40
-0.1821240490929054
 40
-0.1821240490929054
 40
-0.175193434656362
 40
-0.175193434656362
 40
-0.1682627647464817
 40
-0.1682627647464817
 40
-0.1682627647464817
 40
-0.1682627647464817
 10
-36.00715609119216
 20
0.0000000000533818
 30
-109.0424028208936
 10
-36.00715609119209
 20
1.178587704688989
 30
-109.0424028208939
 10
-35.94924474402557
 20
2.357141420988648
 30
-109.0489987128267
 10
-35.71815818971204
 20
4.702923439660877
 30
-109.0578141824724
 10
-35.54498295778853
 20
5.870137043162203
 30
-109.0615377505383
 10
-34.85506057556101
 20
9.337889253423985
 30
-109.0711855310994
 10
-34.16738490599954
 20
11.60436291779025
 30
-109.0751167655945
 10
-33.02051975849594
 20
14.37251233931525
 30
-109.0824076104985
 10
-32.77310422030452
 20
14.92583773807216
 30
-109.0838605578353
 10
-32.271338413664
 20
15.98179305988593
 30
-109.0873860938764
 10
-32.01611259791203
 20
16.48643792094384
 30
-109.0894737644584
 10
-31.48344527841133
 20
17.48218449177986
 30
-109.0952151445193
 10
-31.20598942269771
 20
17.97331002268699
 30
-109.0988688539981
 10
-30.60914855433755
 20
18.97191803165041
 30
-109.1086585456259
 10
-30.28977719001461
 20
19.47944600065916
 30
-109.114794527775
 10
-29.28515678265961
 20
20.98258889596399
 30
-109.1370778352543
 10
-28.57880790646523
 20
21.93525892724286
 30
-109.1562071010186
 10
-27.08348780956183
 20
23.75686287431774
 30
-109.2024842208028
 10
-26.2911361158432
 20
24.63086971343967
 30
-109.2296938605368
 10
-23.79146537792557
 20
27.12994736916054
 30
-109.3220805670594
 10
-21.96139771884265
 20
28.63148697506231
 30
-109.3980144590659
 10
-18.04370656570059
 20
31.24883358427777
 30
-109.5594795302635
 10
-15.95613044371501
 20
32.36461378764728
 30
-109.6414938972417
 10
-11.60269950060841
 20
34.16787490174954
 30
-109.7858163733391
 10
-9.337031506413595
 20
34.85526206269284
 30
-109.8492836829554
 10
-4.714151992231838
 20
35.77493970249461
 30
-109.9410495913005
 10
-2.357209868823462
 20
36.00715609119395
 30
-109.9692834640857
 10
0.0000000000038915
 20
36.0071560911922
 30
-109.9692834640859
  0
ARC
  5
8B
330
1F
100
AcDbEntity
  8
0
100
AcDbCircle
 10
-0.0017791721197113
 20
125.0
 30
-70.0
 40
17.50000000000001
100
AcDbArc
 50
90.00000000000001
 51
270.0
  0
LINE
  5
8C
330
1F
100
AcDbEntity
  8
0
100
AcDbLine
 10
-0.0017791721197113
 20
142.5000000000001
 30
-0.0000000000000126
 11
-0.001779172119712
 21
142.5000000000001
 31
-70.0
  0
ARC
  5
8D
330
1F
100
AcDbEntity
  8
0
100
AcDbCircle
 10
0.0017791721197113
 20
125.0000000000001
 30
-0.0000000000000385
 40
17.5
210
-7.746779408433566E-16
220
-3.720231896783115E-16
230
-1.0
100
AcDbArc
 50
270.0
 51
90.0
  0
LINE
  5
8E
330
1F
100
AcDbEntity
  8
0
100
AcDbLine
 10
-0.0017791721197117
 20
107.5
 30
-70.0
 11
-0.0017791721197113
 21
107.5000000000001
 31
-0.0000000000000015
  0
ARC
  5
8F
330
1F
100
AcDbEntity
  8
0
100
AcDbCircle
 10
-0.0000000000006821
 20
-0.0000000000000102
 30
-167.0
 40
37.53310133215049
100
AcDbArc
 50
0.000000000000007
 51
180.0
  0
LINE
  5
90
330
1F
100
AcDbEntity
  8
0
100
AcDbLine
 10
-37.53310133215117
 20
-0.000000000000011
 30
-166.9999999999998
 11
-51.00000204736175
 21
0.0000000022231632
 31
-129.9999997127923
  0
ARC
  5
91
330
1F
100
AcDbEntity
  8
0
100
AcDbCircle
 10
0.0000001432303648
 20
0.0000000002778927
 30
129.9999997951357
 40
51.00000169423641
210
-1.614576793310899E-9
220
1.433800855334347E-36
230
-1.0
100
AcDbArc
 50
0.0000000021854043
 51
180.0
  0
LINE
  5
92
330
1F
100
AcDbEntity
  8
0
100
AcDbLine
 10
51.00000134111106
 20
-0.000000000000008
 30
-129.9999999010057
 11
37.53310133214981
 21
-0.0000000000000095
 31
-167.0000000000003
  0
SPLINE
  5
93
330
1F
100
AcDbEntity
  8
0
100
AcDbSpline
 70
     0
 71
     3
 72
     8
 73
     4
 74
     0
 42
0.000000001
 43
0.0000000001
 40
0.0000000000000015
 40
0.0000000000000015
 40
0.0000000000000015
 40
0.0000000000000015
 40
224.4882374436812
 40
224.4882374436812
 40
224.4882374436812
 40
224.4882374436812
 10
-212.0
 20
-0.0000000000000064
 30
-70.00000000000001
 10
-162.0082832926877
 20
-0.0000000007359878
 30
-98.73735185815745
 10
-107.6061720104554
 20
-0.0000000014872005
 30
-119.0114307576458
 10
-51.00000204736175
 20
0.0000000022231632
 30
-129.9999997127923
  0
SPLINE
  5
94
330
1F
100
AcDbEntity
  8
0
100
AcDbSpline
 70
     0
 71
     3
 72
    74
 73
    70
 74
     0
 42
0.000000001
 43
0.0000000001
 40
-0.093151009638555
 40
-0.093151009638555
 40
-0.093151009638555
 40
-0.093151009638555
 40
-0.0872860514597918
 40
-0.0872860514597918
 40
-0.0810573113733014
 40
-0.0810573113733014
 40
-0.0738610416121326
 40
-0.0738610416121326
 40
-0.072062602474872
 40
-0.072062602474872
 40
-0.0702248536157611
 40
-0.0702248536157611
 40
-0.0669156463908993
 40
-0.0669156463908993
 40
-0.0628161411095004
 40
-0.0628161411095004
 40
-0.0606463635390842
 40
-0.0606463635390842
 40
-0.0584043945363045
 40
-0.0584043945363045
 40
-0.0537276324186428
 40
-0.0537276324186428
 40
-0.0492323305683354
 40
-0.0492323305683354
 40
-0.0458394477192072
 40
-0.0458394477192072
 40
-0.0434088908578575
 40
-0.0434088908578575
 40
-0.038315097546939
 40
-0.038315097546939
 40
-0.0271542748827264
 40
-0.0271542748827264
 40
-0.0140420911998833
 40
-0.0140420911998833
 40
-0.012312071404723
 40
-0.012312071404723
 40
-0.0105599605566292
 40
-0.0105599605566292
 40
-0.0070049819140014
 40
-0.0070049819140014
 40
-0.003389206016644
 40
-0.003389206016644
 40
0.0002791506535026
 40
0.0002791506535026
 40
0.003980715686896
 40
0.003980715686896
 40
0.0077238164780725
 40
0.0077238164780725
 40
0.0115034466516592
 40
0.0115034466516592
 40
0.0153151483908016
 40
0.0153151483908016
 40
0.0230165565602527
 40
0.0230165565602527
 40
0.0269021231789117
 40
0.0269021231789117
 40
0.0308068214715688
 40
0.0308068214715688
 40
0.0386645733366239
 40
0.0386645733366239
 40
0.0465752997351261
 40
0.0465752997351261
 40
0.0625310818890194
 40
0.0625310818890194
 40
0.0705549374779577
 40
0.0705549374779577
 40
0.0786093540583526
 40
0.0786093540583526
 40
0.0948165429230689
 40
0.0948165429230689
 40
0.0948165429230689
 40
0.0948165429230689
 10
-49.65767463016702
 20
-11.62393233988667
 30
-129.9999997428317
 10
-49.68258303744322
 20
-13.57761037063877
 30
-129.9145296425027
 10
-49.70511525616816
 20
-15.53051638449611
 30
-129.8150193929986
 10
-49.74138969676436
 20
-19.55706396055026
 30
-129.5958867190666
 10
-49.75431509029366
 20
-21.63045292983318
 30
-129.4755151148718
 10
-49.76513988507975
 20
-26.09932788883921
 30
-129.2130484562369
 10
-49.76049524072016
 20
-28.49458563582717
 30
-129.0705256118117
 10
-49.73881621334045
 20
-31.4887375660004
 30
-128.8960635200282
 10
-49.73371426962508
 20
-32.08740204833258
 30
-128.8613433726506
 10
-49.72192966915341
 20
-33.29782970810869
 30
-128.7915371924304
 10
-49.71478226382793
 20
-33.90958660840455
 30
-128.7565172184764
 10
-49.69445532604232
 20
-35.62294818385426
 30
-128.6588495845141
 10
-49.67886072758805
 20
-36.72442443040604
 30
-128.5947996071457
 10
-49.64208362841151
 20
-39.1899550491886
 30
-128.4432961008853
 10
-49.61994177547676
 20
-40.55381049287738
 30
-128.3543329185092
 10
-49.58405782102844
 20
-42.63882377662777
 30
-128.2070198942532
 10
-49.57132170555801
 20
-43.36027339141775
 30
-128.153986464009
 10
-49.54531336764744
 20
-44.82684567641743
 30
-128.041410130454
 10
-49.53202669977028
 20
-45.57191646123927
 30
-127.9817145026869
 10
-49.49066912429839
 20
-47.87056793562088
 30
-127.7890332689163
 10
-49.46205279375096
 20
-49.42308547618426
 30
-127.6469117605813
 10
-49.40721506457538
 20
-52.46563481900561
 30
-127.3398505043616
 10
-49.38198658364976
 20
-53.95512456192107
 30
-127.1757636164224
 10
-49.33641866351079
 20
-56.56617399209753
 30
-126.860586597322
 10
-49.31814511928003
 20
-57.6884951675404
 30
-126.7192619439235
 10
-49.284652367322
 20
-59.61358644173448
 30
-126.4666188278937
 10
-49.27049825721114
 20
-60.41663792110796
 30
-126.3581263842262
 10
-49.22637461776208
 20
-62.90139231892699
 30
-126.0124303795504
 10
-49.19609846480862
 20
-64.58125764170437
 30
-125.764507414572
 10
-49.09908932816187
 20
-69.93534282230307
 30
-124.9254866245622
 10
-49.03219722438924
 20
-73.59648425489685
 30
-124.2780205258785
 10
-48.89277180026951
 20
-81.53307496195286
 30
-122.6936305422136
 10
-48.82167438140024
 20
-85.79083553586307
 30
-121.7285599093072
 10
-48.7494748401356
 20
-90.5852703281626
 30
-120.5008796462019
 10
-48.74118165311031
 20
-91.1435738238997
 30
-120.3557427920971
 10
-48.72473780345747
 20
-92.26626236391493
 30
-120.059478671894
 10
-48.71658985179084
 20
-92.8305950304772
 30
-119.9083089505408
 10
-48.69230169529932
 20
-94.53826854310886
 30
-119.4440119201489
 10
-48.67659777255526
 20
-95.67964023873014
 30
-119.1243556884596
 10
-48.64611901730218
 20
-97.97717600695873
 30
-118.4618611507648
 10
-48.63135158322125
 20
-99.1329089510333
 30
-118.1188223442468
 10
-48.60288076972751
 20
-101.4559813739692
 30
-117.4093942907637
 10
-48.58919246812513
 20
-102.6228750584536
 30
-117.0428518462741
 10
-48.56306821495709
 20
-104.9615616928989
 30
-116.2875762776922
 10
-48.55064912597172
 20
-106.1329192799087
 30
-115.8987965976861
 10
-48.52707947959859
 20
-108.4826720292073
 30
-115.0976515535648
 10
-48.51596856614376
 20
-109.6606003382302
 30
-114.685205308173
 10
-48.4950754869019
 20
-112.0213745903423
 30
-113.8366883851846
 10
-48.48533944671014
 20
-113.2037455145493
 30
-113.4005725136668
 10
-48.4672743526322
 20
-115.5714740606206
 30
-112.5047387052085
 10
-48.45897362420838
 20
-116.7563512134395
 30
-112.0450106587835
 10
-48.43624480737566
 20
-120.3239314954833
 30
-110.6261212385357
 10
-48.42412210613855
 20
-122.6925196464758
 30
-109.637101073324
 10
-48.41090379000688
 20
-126.232344222118
 30
-108.0877045083842
 10
-48.40724636649784
 20
-127.4147054133872
 30
-107.5580300402803
 10
-48.40156434231302
 20
-129.776392574492
 30
-106.4755839516524
 10
-48.39953534444235
 20
-130.9552329384951
 30
-105.9229147892727
 10
-48.39588165421554
 20
-134.4923869412022
 30
-104.2272274204085
 10
-48.39676030419629
 20
-136.8338971336528
 30
-103.0543009874924
 10
-48.40508644053278
 20
-141.4940100891826
 30
-100.6179772050144
 10
-48.41259878999835
 20
-143.8087884049069
 30
-99.35588685179951
 10
-48.44518320529369
 20
-150.7292619354043
 30
-95.4247744272205
 10
-48.48022866691586
 20
-155.2496162669828
 30
-92.64282312080928
 10
-48.55256275968189
 20
-161.9092686118151
 30
-88.21643665497416
 10
-48.580104070244
 20
-164.1098969909231
 30
-86.69734064553873
 10
-48.64167048368947
 20
-168.4681367359879
 30
-83.57463894287814
 10
-48.67584137574907
 20
-170.6221618508462
 30
-81.97316027445748
 10
-48.78803745103387
 20
-177.0287467146645
 30
-77.03304186061992
 10
-48.8760399171456
 20
-181.1788449117717
 30
-73.59268301276384
 10
-48.97661721895108
 20
-185.2154758643205
 30
-70.0
  0
SPLINE
  5
95
330
1F
100
AcDbEntity
  8
0
100
AcDbSpline
210
0.0
220
0.0
230
1.0
 70
    24
 71
     3
 72
     8
 73
     4
 74
     0
 42
0.000000001
 43
0.0000000001
 40
-0.3576261127356077
 40
-0.3576261127356077
 40
-0.3576261127356077
 40
-0.3576261127356077
 40
-0.354651162790698
 40
-0.354651162790698
 40
-0.354651162790698
 40
-0.354651162790698
 10
-48.97661721895108
 20
-185.2154758643205
 30
-70.0
 10
-49.31774832724266
 20
-185.2154758643206
 30
-70.0
 10
-49.65887577066501
 20
-185.2154758643205
 30
-70.0
 10
-50.00000000000005
 20
-185.2154758643205
 30
-70.0
  0
ARC
  5
96
330
1F
100
AcDbEntity
  8
0
100
AcDbCircle
 10
0.0
 20
-0.0000000000000107
 30
-167.0
 40
22.0
100
AcDbArc
 50
90.00000000000001
 51
270.0
  0
LINE
  5
97
330
1F
100
AcDbEntity
  8
0
100
AcDbLine
 10
0.0
 20
21.99999999999999
 30
-113.0
 11
0.0000000000000004
 21
21.99999999999999
 31
-167.0
  0
ARC
  5
98
330
1F
100
AcDbEntity
  8
0
100
AcDbCircle
 10
-0.000000000000073
 20
-0.0000000000000071
 30
113.0
 40
22.0
210
-6.459479416000911E-16
220
-1.376942926833847E-45
230
-1.0
100
AcDbArc
 50
270.0
 51
90.0
  0
LINE
  5
99
330
1F
100
AcDbEntity
  8
0
100
AcDbLine
 10
-0.0000000000000004
 20
-22.00000000000001
 30
-167.0
 11
0.0
 21
-22.00000000000001
 31
-113.0
  0
SPLINE
  5
9A
330
1F
100
AcDbEntity
  8
0
100
AcDbSpline
 70
     0
 71
     3
 72
    18
 73
    14
 74
     0
 42
0.000000001
 43
0.0000000001
 40
0.0
 40
0.0
 40
0.0
 40
0.0
 40
0.0010459742275035
 40
0.0010459742275035
 40
0.0019672298352847
 40
0.0019672298352847
 40
0.0037381921726739
 40
0.0037381921726739
 40
0.0055486740600795
 40
0.0055486740600795
 40
0.0065194790813755
 40
0.0065194790813755
 40
0.0076009670538225
 40
0.0076009670538225
 40
0.0076009670538225
 40
0.0076009670538225
 10
24.99999999999999
 20
-225.5254295317495
 30
-24.99999999999996
 10
25.36202408048929
 20
-225.5238812266984
 30
-24.99999999999987
 10
25.68413988924094
 20
-225.4023216943061
 30
-25.10315421713571
 10
26.17445078332533
 20
-225.0674392126133
 30
-25.3879660210903
 10
26.3547099730946
 20
-224.8682748547121
 30
-25.55748716391261
 10
26.75209888841153
 20
-224.2604328820252
 30
-26.07405012705678
 10
26.87241625419007
 20
-223.7954171828873
 30
-26.46815881282237
 10
26.88765139589228
 20
-222.9001172870753
 30
-27.22383038365893
 10
26.77823239756171
 20
-222.419770508691
 30
-27.62757107365739
 10
26.39356808143723
 20
-221.7800623038178
 30
-28.16384812340378
 10
26.2092732428203
 20
-221.5619986406531
 30
-28.3463775045671
 10
25.7095903824517
 20
-221.2015048788496
 30
-28.64845410017011
 10
25.37605746680577
 20
-221.0681292795383
 30
-28.76053787588345
 10
25.00000000000001
 20
-221.0700222514118
 30
-28.76053787588314
  0
SPLINE
  5
9B
330
1F
100
AcDbEntity
  8
0
100
AcDbSpline
 70
     0
 71
     3
 72
    12
 73
     8
 74
     0
 42
0.000000001
 43
0.0000000001
 40
-0.9543356727763372
 40
-0.9543356727763372
 40
-0.9543356727763372
 40
-0.9543356727763372
 40
-0.9126451492775609
 40
-0.9126451492775609
 40
-0.6035021146754994
 40
-0.6035021146754994
 40
0.0
 40
0.0
 40
0.0
 40
0.0
 10
34.47758506216466
 20
-10.38322772824907
 30
-109.0977365690688
 10
38.54463396216997
 20
-11.60434230374243
 30
-108.7590817152016
 10
42.60304441413191
 20
-12.82447518016633
 30
-108.3621075792102
 10
76.67372810572606
 20
-23.08301620137016
 30
-104.5348224831729
 10
106.1625231017776
 20
-32.06301088680569
 30
-97.98241029709997
 10
190.37082426795
 20
-58.27714164079524
 30
-69.83641770995598
 10
242.3786622788166
 20
-75.2290440564104
 30
-39.86166707732819
 10
287.5000000000002
 20
-91.49396519881512
 30
-0.0000000000000276
  0
SPLINE
  5
9C
330
1F
100
AcDbEntity
  8
0
100
AcDbSpline
210
-6.981956497053441E-13
220
1.0
230
-1.120764906462841E-12
 70
     8
 71
     3
 72
    12
 73
     8
 74
     0
 42
0.000000001
 43
0.0000000001
 40
-0.0000000000000142
 40
-0.0000000000000142
 40
-0.0000000000000142
 40
-0.0000000000000142
 40
214.0008192189742
 40
214.0008192189742
 40
323.6224113425628
 40
323.6224113425628
 40
337.7757131066974
 40
337.7757131066974
 40
337.7757131066974
 40
337.7757131066974
 10
-287.5
 20
0.0000000000000014
 30
0.0000000000000283
 10
-243.2911351432645
 20
-0.0000000000054975
 30
-39.84661583285916
 10
-191.621791753792
 20
-0.0000000000112771
 30
-69.79189665528007
 10
-107.4337842326543
 20
-0.0000000000198929
 30
-97.93586613659092
 10
-77.86656414615032
 20
-0.0000000000227898
 30
-104.4949748236297
 10
-43.82135428181859
 20
-0.0000000000259809
 30
-108.3252292147062
 10
-39.91863084641964
 20
-0.0000000000263447
 30
-108.7104181351434
 10
-36.00715609119216
 20
0.0000000000533818
 30
-109.0424028208936
  0
ARC
  5
9D
330
1F
100
AcDbEntity
  8
0
100
AcDbCircle
 10
0.0
 20
-0.0000000000000071
 30
-167.0
 40
22.0
100
AcDbArc
 50
270.0
 51
90.0
  0
ARC
  5
9E
330
1F
100
AcDbEntity
  8
0
100
AcDbCircle
 10
0.000000000000073
 20
-0.0000000000000089
 30
113.0
 40
22.0
210
6.459479416000911E-16
220
2.486786751884497E-45
230
-1.0
100
AcDbArc
 50
90.00000000000001
 51
270.0
  0
ARC
  5
9F
330
1F
100
AcDbEntity
  8
0
100
AcDbCircle
 10
214.9999999999999
 20
-179.9999999999999
 30
-70.0
 40
84.99999999999991
100
AcDbArc
 50
270.0000000000001
 51
0.0000000000000192
  0
LINE
  5
A0
330
1F
100
AcDbEntity
  8
0
100
AcDbLine
 10
299.9999999999998
 20
-179.9999999999999
 30
-70.0
 11
297.5555461355776
 21
-179.9999999999999
 31
0.0000000000000028
  0
ARC
  5
A1
330
1F
100
AcDbEntity
  8
0
100
AcDbCircle
 10
-215.0
 20
-179.9999999999998
 30
-0.0000000000000374
 40
82.55554613557757
210
-6.993061033803587E-17
220
7.677831415630189E-17
230
-1.0
100
AcDbArc
 50
180.0000000000001
 51
270.0
  0
LINE
  5
A2
330
1F
100
AcDbEntity
  8
0
100
AcDbLine
 10
215.0
 20
-262.5555461355775
 30
0.0000000000000049
 11
215.0
 21
-264.9999999999998
 31
-70.0
  0
SPLINE
  5
A3
330
1F
100
AcDbEntity
  8
0
100
AcDbSpline
210
0.0
220
0.0
230
1.0
 70
    24
 71
     2
 72
     6
 73
     3
 74
     0
 42
0.000000001
 43
0.0000000001
 40
0.0
 40
0.0
 40
0.0
 40
0.0700426681009175
 40
0.0700426681009175
 40
0.0700426681009175
 10
300.0
 20
110.0000000000001
 30
-70.0
 10
298.7777730677889
 20
110.0000000000001
 30
-35.0
 10
297.5555461355777
 20
110.0000000000001
 30
-0.0000000000000064
  0
ARC
  5
A4
330
1F
100
AcDbEntity
  8
0
100
AcDbCircle
 10
214.9999999999999
 20
110.0000000000003
 30
-70.0
 40
85.00000000000006
100
AcDbArc
 50
359.9999999999998
 51
90.00000000000001
  0
LINE
  5
A5
330
1F
100
AcDbEntity
  8
0
100
AcDbLine
 10
214.9999999999999
 20
195.0000000000001
 30
-70.0
 11
214.9999999999999
 21
192.5555461355778
 31
-0.000000000000015
  0
ARC
  5
A6
330
1F
100
AcDbEntity
  8
0
100
AcDbCircle
 10
-215.0000000000001
 20
110.0000000000002
 30
0.0000000000000704
 40
82.55554613557763
210
2.143644518262362E-16
220
4.841349946479393E-17
230
-1.0
100
AcDbArc
 50
89.99999999999984
 51
180.0
  0
SPLINE
  5
A7
330
1F
100
AcDbEntity
  8
0
100
AcDbSpline
210
0.0
220
0.0
230
1.0
 70
    24
 71
     2
 72
     6
 73
     3
 74
     0
 42
0.000000001
 43
0.0000000001
 40
0.0
 40
0.0
 40
0.0
 40
0.0700426681009175
 40
0.0700426681009175
 40
0.0700426681009175
 10
-214.9999999999999
 20
195.0000000000001
 30
-70.0
 10
-214.9999999999999
 20
193.7777730677889
 30
-35.00000000000001
 10
-214.9999999999999
 20
192.5555461355777
 30
-0.0000000000000156
  0
ARC
  5
A8
330
1F
100
AcDbEntity
  8
0
100
AcDbCircle
 10
-215.0000000000001
 20
110.0000000000001
 30
-70.0
 40
85.00000000000003
100
AcDbArc
 50
89.99999999999989
 51
180.0
  0
LINE
  5
A9
330
1F
100
AcDbEntity
  8
0
100
AcDbLine
 10
-300.0000000000001
 20
110.0000000000001
 30
-70.0
 11
-297.5555461355778
 21
110.0
 31
-0.0000000000000108
  0
ARC
  5
AA
330
1F
100
AcDbEntity
  8
0
100
AcDbCircle
 10
214.9999999999999
 20
110.0000000000001
 30
0.0000000000000368
 40
82.55554613557783
210
-2.689638859155211E-17
220
1.634710981033544E-16
230
-1.0
100
AcDbArc
 50
359.9999999999999
 51
90.0
  0
SPLINE
  5
AB
330
1F
100
AcDbEntity
  8
0
100
AcDbSpline
210
0.0
220
0.0
230
1.0
 70
    24
 71
     2
 72
     6
 73
     3
 74
     0
 42
0.000000001
 43
0.0000000001
 40
0.0
 40
0.0
 40
0.0
 40
0.0700426681009175
 40
0.0700426681009175
 40
0.0700426681009175
 10
-299.9999999999999
 20
-180.0000000000001
 30
-69.99999999999999
 10
-298.7777730677887
 20
-180.0000000000001
 30
-34.99999999999999
 10
-297.5555461355775
 20
-180.0000000000001
 30
0.0000000000000026
  0
ARC
  5
AC
330
1F
100
AcDbEntity
  8
0
100
AcDbCircle
 10
-215.0
 20
-179.9999999999998
 30
-70.0
 40
84.99999999999994
100
AcDbArc
 50
180.0000000000002
 51
270.0
  0
LINE
  5
AD
330
1F
100
AcDbEntity
  8
0
100
AcDbLine
 10
-215.0
 20
-264.9999999999998
 30
-70.0
 11
-214.9999999999999
 21
-262.5555461355776
 31
0.0000000000000067
  0
ARC
  5
AE
330
1F
100
AcDbEntity
  8
0
100
AcDbCircle
 10
214.9999999999998
 20
-180.0
 30
-0.0000000000000555
 40
82.5555461355776
210
1.348440381702643E-16
220
7.530988805634624E-17
230
-1.0
100
AcDbArc
 50
270.0000000000001
 51
0.0
  0
SPLINE
  5
AF
330
1F
100
AcDbEntity
  8
0
100
AcDbSpline
210
0.0
220
0.0
230
1.0
 70
    24
 71
     2
 72
     6
 73
     3
 74
     0
 42
0.000000001
 43
0.0000000001
 40
-0.000000000001012
 40
-0.000000000001012
 40
-0.000000000001012
 40
0.1818225525177357
 40
0.1818225525177357
 40
0.1818225525177357
 10
-287.5
 20
-181.8225525187476
 30
0.0000000000000087
 10
-287.5
 20
-90.91127625937382
 30
0.0000000000000185
 10
-287.5
 20
0.0000000000000014
 30
0.0000000000000283
  0
SPLINE
  5
B0
330
1F
100
AcDbEntity
  8
0
100
AcDbSpline
210
0.0
220
0.0
230
1.0
 70
    24
 71
     2
 72
     6
 73
     3
 74
     0
 42
0.000000001
 43
0.0000000001
 40
0.1818225525177357
 40
0.1818225525177357
 40
0.1818225525177357
 40
0.1929999999963144
 40
0.1929999999963144
 40
0.1929999999963144
 10
-287.5
 20
0.0000000000000014
 30
0.0000000000000283
 10
-287.5
 20
5.588723739289326
 30
0.0000000000000134
 10
-287.5
 20
11.17744747857865
 30
-0.0000000000000014
  0
SPLINE
  5
B1
330
1F
100
AcDbEntity
  8
0
100
AcDbSpline
210
0.0
220
0.0
230
1.0
 70
    24
 71
     2
 72
     6
 73
     3
 74
     0
 42
0.000000001
 43
0.0000000001
 40
-0.4350000000017454
 40
-0.4350000000017454
 40
-0.4350000000017454
 40
0.0000000000028814
 40
0.0000000000028814
 40
0.0000000000028814
 10
-217.5000000017454
 20
81.17744748226427
 30
-0.0000000000000122
 10
0.0000000005679794
 20
81.17744748226431
 30
-0.0000000000000086
 10
217.5000000028814
 20
81.17744748226434
 30
-0.0000000000000051
  0
SPLINE
  5
B2
330
1F
100
AcDbEntity
  8
0
100
AcDbSpline
210
0.0
220
0.0
230
1.0
 70
    24
 71
     2
 72
     6
 73
     3
 74
     0
 42
0.000000001
 43
0.0000000001
 40
-0.193
 40
-0.193
 40
-0.193
 40
-0.0903285873189206
 40
-0.0903285873189206
 40
-0.0903285873189206
 10
287.5000000000001
 20
11.17744748226431
 30
-0.0000000000000036
 10
287.5000000000001
 20
-40.1582588582754
 30
-0.0000000000000156
 10
287.5000000000002
 20
-91.49396519881512
 30
-0.0000000000000276
  0
SPLINE
  5
B3
330
1F
100
AcDbEntity
  8
0
100
AcDbSpline
210
0.0
220
0.0
230
1.0
 70
    24
 71
     2
 72
     6
 73
     3
 74
     0
 42
0.000000001
 43
0.0000000001
 40
-0.0903285873189206
 40
-0.0903285873189206
 40
-0.0903285873189206
 40
0.0
 40
0.0
 40
0.0
 10
287.5000000000002
 20
-91.49396519881512
 30
-0.0000000000000276
 10
287.5000000000001
 20
-136.6582588582754
 30
-0.000000000000025
 10
287.5
 20
-181.8225525177357
 30
-0.0000000000000225
  0
SPLINE
  5
B4
330
1F
100
AcDbEntity
  8
0
100
AcDbSpline
210
0.0
220
0.0
230
1.0
 70
    24
 71
     2
 72
     6
 73
     3
 74
     0
 42
0.000000001
 43
0.0000000001
 40
-0.0000000000000778
 40
-0.0000000000000778
 40
-0.0000000000000778
 40
0.4350000000010867
 40
0.4350000000010867
 40
0.4350000000010867
 10
217.5000000000779
 20
-251.8225525177357
 30
-0.0000000000000031
 10
-0.0000000005044143
 20
-251.8225525177357
 30
0.0000000000000023
 10
-217.5000000010867
 20
-251.8225525177357
 30
0.0000000000000077
  0
SPLINE
  5
B5
330
1F
100
AcDbEntity
  8
0
100
AcDbSpline
210
0.0
220
0.0
230
1.0
 70
    24
 71
     2
 72
     6
 73
     3
 74
     0
 42
0.000000001
 43
0.0000000001
 40
0.0120000000000002
 40
0.0120000000000002
 40
0.0120000000000002
 40
0.0879999999999997
 40
0.0879999999999997
 40
0.0879999999999997
 10
37.99999999999984
 20
-230.2354051023678
 30
-70.00000000000003
 10
0.0000000000000568
 20
-230.2354051023678
 30
-70.00000000000001
 10
-37.99999999999973
 20
-230.2354051023678
 30
-70.0
  0
SPLINE
  5
B6
330
1F
100
AcDbEntity
  8
0
100
AcDbSpline
210
0.0
220
0.0
230
1.0
 70
    24
 71
     3
 72
     8
 73
     4
 74
     0
 42
0.000000001
 43
0.0000000001
 40
0.3542760548618361
 40
0.3542760548618361
 40
0.3542760548618361
 40
0.3542760548618361
 40
0.3572631845047058
 40
0.3572631845047058
 40
0.3572631845047058
 40
0.3572631845047058
 10
50.0
 20
-185.2154758643206
 30
-70.0
 10
49.65887577066506
 20
-185.2154758643206
 30
-70.0
 10
49.3177483272428
 20
-185.2154758643206
 30
-70.0
 10
48.97661721895116
 20
-185.2154758643206
 30
-70.0
  0
SPLINE
  5
B7
330
1F
100
AcDbEntity
  8
0
100
AcDbSpline
210
0.0
220
0.0
230
1.0
 70
    24
 71
     2
 72
     6
 73
     3
 74
     0
 42
0.000000001
 43
0.0000000001
 40
-0.3439999999999993
 40
-0.3439999999999993
 40
-0.3439999999999993
 40
-0.2219999999999997
 40
-0.2219999999999997
 40
-0.2219999999999997
 10
171.9999999999995
 20
-185.2154758643206
 30
-70.0
 10
110.9999999999998
 20
-185.2154758643206
 30
-70.0
 10
50.0
 20
-185.2154758643206
 30
-70.0
  0
SPLINE
  5
B8
330
1F
100
AcDbEntity
  8
0
100
AcDbSpline
210
0.0
220
0.0
230
1.0
 70
    24
 71
     2
 72
     6
 73
     3
 74
     0
 42
0.000000001
 43
0.0000000001
 40
0.0
 40
0.0
 40
0.0
 40
0.3439999999999994
 40
0.3439999999999994
 40
0.3439999999999994
 10
-171.9999999999997
 20
86.0
 30
-70.0
 10
0.0
 20
86.0
 30
-70.0
 10
171.9999999999997
 20
86.0
 30
-70.0
  0
SPLINE
  5
B9
330
1F
100
AcDbEntity
  8
0
100
AcDbSpline
210
0.0
220
0.0
230
1.0
 70
    24
 71
     2
 72
     6
 73
     3
 74
     0
 42
0.000000001
 43
0.0000000001
 40
0.1452154758643203
 40
0.1452154758643203
 40
0.1452154758643203
 40
0.1912154758643199
 40
0.1912154758643199
 40
0.1912154758643199
 10
-212.0
 20
-0.0000000000000064
 30
-70.00000000000001
 10
-212.0000000000001
 20
22.99999999999985
 30
-70.0
 10
-212.0000000000001
 20
45.9999999999997
 30
-70.0
  0
SPLINE
  5
BA
330
1F
100
AcDbEntity
  8
0
100
AcDbSpline
210
0.0
220
0.0
230
1.0
 70
    24
 71
     2
 72
     6
 73
     3
 74
     0
 42
0.000000001
 43
0.0000000001
 40
0.0
 40
0.0
 40
0.0
 40
0.1452154758643203
 40
0.1452154758643203
 40
0.1452154758643203
 10
-212.0000000000001
 20
-145.2154758643204
 30
-69.99999999999997
 10
-212.0000000000001
 20
-72.60773793216019
 30
-70.0
 10
-212.0
 20
-0.0000000000000064
 30
-70.00000000000001
  0
SPLINE
  5
BB
330
1F
100
AcDbEntity
  8
0
100
AcDbSpline
210
0.0
220
0.0
230
1.0
 70
    24
 71
     2
 72
     6
 73
     3
 74
     0
 42
0.000000001
 43
0.0000000001
 40
-0.1219999999999997
 40
-0.1219999999999997
 40
-0.1219999999999997
 40
0.0000000000000003
 40
0.0000000000000003
 40
0.0000000000000003
 10
-50.00000000000005
 20
-185.2154758643205
 30
-70.0
 10
-111.0000000000001
 20
-185.2154758643206
 30
-69.99999999999999
 10
-172.0000000000001
 20
-185.2154758643206
 30
-69.99999999999997
  0
SPLINE
  5
BC
330
1F
100
AcDbEntity
  8
0
100
AcDbSpline
 70
     0
 71
     3
 72
    11
 73
     7
 74
     0
 42
0.000000001
 43
0.0000000001
 40
0.0
 40
0.0
 40
0.0
 40
0.0
 40
0.9999999564641967
 40
0.9999999564641967
 40
0.9999999564641967
 40
0.9999999724566159
 40
0.9999999724566159
 40
0.9999999724566159
 40
0.9999999724566159
 10
212.0
 20
-51.61936810981956
 30
-70.00000000000001
 10
161.613201027406
 20
-38.62614220138159
 30
-99.50386663745356
 10
106.7321817080635
 20
-25.1049412269968
 30
-119.8506575565025
 10
49.70338483123363
 20
-11.42692210396668
 30
-129.999999224754
 10
49.70338391920516
 20
-11.42692188522205
 30
-129.9999993870666
 10
49.7033830071767
 20
-11.42692166647742
 30
-129.9999995493791
 10
49.70338209094473
 20
-11.4269214652515
 30
-129.9999997117214
  0
SPLINE
  5
BD
330
1F
100
AcDbEntity
  8
0
100
AcDbSpline
 70
     0
 71
     3
 72
    70
 73
    66
 74
     0
 42
0.000000001
 43
0.0000000001
 40
-0.0929104131796063
 40
-0.0929104131796063
 40
-0.0929104131796063
 40
-0.0929104131796063
 40
-0.0847948388230133
 40
-0.0847948388230133
 40
-0.0767090099733803
 40
-0.0767090099733803
 40
-0.0686528051993333
 40
-0.0686528051993333
 40
-0.0606271319592803
 40
-0.0606271319592803
 40
-0.0446644576009349
 40
-0.0446644576009349
 40
-0.0367510838322576
 40
-0.0367510838322576
 40
-0.0288909220173087
 40
-0.0288909220173087
 40
-0.0249869559821191
 40
-0.0249869559821191
 40
-0.0211001644806887
 40
-0.0211001644806887
 40
-0.0172343680183943
 40
-0.0172343680183943
 40
-0.013393190472793
 40
-0.013393190472793
 40
-0.0095801925769256
 40
-0.0095801925769256
 40
-0.0057992705844802
 40
-0.0057992705844802
 40
-0.0020549012187087
 40
-0.0020549012187087
 40
0.0016479034300881
 40
0.0016479034300881
 40
0.0291529296732629
 40
0.0291529296732629
 40
0.0403310916629039
 40
0.0403310916629039
 40
0.0454303939852297
 40
0.0454303939852297
 40
0.0478628762358926
 40
0.0478628762358926
 40
0.0512382674000476
 40
0.0512382674000476
 40
0.0557235646146421
 40
0.0557235646146421
 40
0.0603946270492171
 40
0.0603946270492171
 40
0.0626334522969488
 40
0.0626334522969488
 40
0.063727680842708
 40
0.063727680842708
 40
0.064800527342399
 40
0.064800527342399
 40
0.0688951932546886
 40
0.0688951932546886
 40
0.0721983627510135
 40
0.0721983627510135
 40
0.0740353466160424
 40
0.0740353466160424
 40
0.0758329509764406
 40
0.0758329509764406
 40
0.0830238835260919
 40
0.0830238835260919
 40
0.0892464075876332
 40
0.0892464075876332
 40
0.0951089111951899
 40
0.0951089111951899
 40
0.0951089111951899
 40
0.0951089111951899
 10
48.97661721895116
 20
-185.2154758643206
 30
-70.0
 10
48.92589211933322
 20
-183.1943220411851
 30
-71.80015629512012
 10
48.87830173765622
 20
-181.1430724286575
 30
-73.56344979416049
 10
48.78960691329075
 20
-176.9840240729929
 30
-77.01307834647467
 10
48.74849335064668
 20
-174.879677933672
 30
-78.69700336003271
 10
48.67285555981848
 20
-170.617453817622
 30
-81.98631805935807
 10
48.6382636035802
 20
-168.4630915746454
 30
-83.58943399190098
 10
48.57573679726075
 20
-164.1041698852114
 30
-86.71547133463939
 10
48.54770243665971
 20
-161.9031897241483
 30
-88.23626724654824
 10
48.47380603795562
 20
-155.2415736862388
 30
-92.6684387886003
 10
48.4375835787177
 20
-150.719531813268
 30
-95.45451841564498
 10
48.40315766037214
 20
-143.796687508706
 30
-99.39180539171159
 10
48.39505466685962
 20
-141.4812566998347
 30
-100.6558860803791
 10
48.38537575858081
 20
-136.8198869421769
 30
-103.0962031706602
 10
48.38392729401328
 20
-134.4777644040111
 30
-104.2711296706269
 10
48.38649405496462
 20
-130.9402554211213
 30
-105.9695794608174
 10
48.38817897064847
 20
-129.7616843381333
 30
-106.5229956489507
 10
48.39321579142721
 20
-127.3999414672609
 30
-107.6072338022559
 10
48.39652591325306
 20
-126.2172504649964
 30
-108.1379448763075
 10
48.40470554319164
 20
-123.8489089601193
 30
-109.1763601569975
 10
48.40959399973604
 20
-122.6637424052267
 30
-109.6839816409465
 10
48.42090861501681
 20
-120.2920600648275
 30
-110.6759227959899
 10
48.42734606245684
 20
-119.1060295551292
 30
-111.1601897469591
 10
48.4417220888677
 20
-116.7342360698057
 30
-112.105228634352
 10
48.44965880767345
 20
-115.5489570234563
 30
-112.5659779619389
 10
48.46700680554492
 20
-113.1804092681826
 30
-113.4638418791901
 10
48.47638781624224
 20
-111.997621260861
 30
-113.9009663352698
 10
48.4965796220872
 20
-109.6360015569553
 30
-114.7514788396604
 10
48.50734539786287
 20
-108.4576453898432
 30
-115.1649117304722
 10
48.53022563477876
 20
-106.1070258393679
 30
-115.9680003028098
 10
48.54229632500395
 20
-104.9352301861432
 30
-116.3577368843692
 10
48.65001393123781
 20
-95.03162140691839
 30
-119.5628227148538
 10
48.78379931008914
 20
-86.20868575327098
 30
-121.837793093712
 10
49.00440540422812
 20
-73.559954023085
 30
-124.3651779089176
 10
49.07116978798432
 20
-69.89293246441031
 30
-125.0135180426909
 10
49.16858770554349
 20
-64.53066100916651
 30
-125.8518124439671
 10
49.19906352122754
 20
-62.84875231967731
 30
-126.0991634835688
 10
49.24361662300539
 20
-60.36115251651557
 30
-126.4435597224087
 10
49.25792807152077
 20
-59.55733410456466
 30
-126.5515468454372
 10
49.29173569186472
 20
-57.63706067491297
 30
-126.801950922267
 10
49.3102066371186
 20
-56.52033087119762
 30
-126.9415466107011
 10
49.35635974587971
 20
-53.91791458946556
 30
-127.2530886112111
 10
49.38200227361123
 20
-52.43148385970683
 30
-127.4152910948744
 10
49.43779066307724
 20
-49.39362713402004
 30
-127.7185350701475
 10
49.46694896193565
 20
-47.84274907421436
 30
-127.8587129290984
 10
49.50913370754603
 20
-45.54667429585566
 30
-128.0484666264117
 10
49.5226893579795
 20
-44.80253376369858
 30
-128.1072003923861
 10
49.54276455563409
 20
-43.69437843587558
 30
-128.1909362558342
 10
49.54933779294198
 20
-43.33053238377936
 30
-128.2178305207734
 10
49.56227217240698
 20
-42.60986404311959
 30
-128.2699870146022
 10
49.56863596702196
 20
-42.25304756358202
 30
-128.2952703718824
 10
49.598900914578
 20
-40.53420767958855
 30
-128.4146263463284
 10
49.62158674472163
 20
-39.17177290817843
 30
-128.5018254597379
 10
49.65939259951303
 20
-36.70952417023631
 30
-128.6500152546985
 10
49.6755027081733
 20
-35.60991151187299
 30
-128.7125541656038
 10
49.69656180481429
 20
-33.89857528825078
 30
-128.8077381178905
 10
49.70405686207378
 20
-33.28698475122646
 30
-128.8418426190669
 10
49.71649820793564
 20
-32.07690700664155
 30
-128.9097311881212
 10
49.72194135902257
 20
-31.47842643050281
 30
-128.9434495743486
 10
49.74542642613768
 20
-28.48584225634064
 30
-129.1126006708695
 10
49.7518823474289
 20
-26.09190295291501
 30
-129.2499950038602
 10
49.74487857483589
 20
-21.62595311399573
 30
-129.5016722288787
 10
49.73392381335641
 20
-19.55417581386255
 30
-129.6165406202241
 10
49.70152187109451
 20
-15.52964500239653
 30
-129.824938519339
 10
49.68088137291783
 20
-13.5771413685457
 30
-129.9192217058273
 10
49.6576706385605
 20
-11.62393091841635
 30
-130.00000053624
  0
SPLINE
  5
BE
330
1F
100
AcDbEntity
  8
0
100
AcDbSpline
210
-2.244857674766054E-6
220
4.706039508396803E-6
230
-0.9999999999864069
 70
     8
 71
     3
 72
     8
 73
     4
 74
     0
 42
0.000000001
 43
0.0000000001
 40
-0.03659626904496
 40
-0.03659626904496
 40
-0.03659626904496
 40
-0.03659626904496
 40
-0.0359651316972054
 40
-0.0359651316972054
 40
-0.0359651316972054
 40
-0.0359651316972054
 10
49.6576706385605
 20
-11.62393091841635
 30
-130.00000053624
 10
49.67303415805969
 20
-11.55830818872785
 30
-130.0000002619095
 10
49.68827139343006
 20
-11.49263830115582
 30
-129.9999999870661
 10
49.70338209094473
 20
-11.4269214652515
 30
-129.9999997117214
  0
ARC
  5
BF
330
1F
100
AcDbEntity
  8
0
100
AcDbCircle
 10
-0.0000000000004631
 20
-0.0000000000000102
 30
167.0
 40
37.53310133215049
210
-6.815194476202910E-15
220
1.100083005394165E-42
230
-1.0
100
AcDbArc
 50
180.0
 51
0.0
  0
ARC
  5
C0
330
1F
100
AcDbEntity
  8
0
100
AcDbCircle
 10
0.0001372865029946
 20
0.0000395183792768
 30
-129.9999393103002
 40
51.00001850125318
210
1.188051215180202E-6
220
-7.039438682393023E-8
230
0.9999999999992919
100
AcDbArc
 50
348.6350732609718
 51
359.9999453222695
  0
ARC
  5
C1
330
1F
100
AcDbEntity
  8
0
100
AcDbCircle
 10
-0.0014999229743762
 20
-0.00026090039164
 30
-130.0006447526294
 40
50.99976619512114
210
-1.241201133248704E-5
220
2.461938120711821E-6
230
0.9999999999199405
100
AcDbArc
 50
347.0531600592267
 51
348.6357377853114
  0
SPLINE
  5
C2
330
1F
100
AcDbEntity
  8
0
100
AcDbSpline
 70
     0
 71
     3
 72
    38
 73
    34
 74
     0
 42
0.000000001
 43
0.0000000001
 40
-0.1062149546678294
 40
-0.1062149546678294
 40
-0.1062149546678294
 40
-0.1062149546678294
 40
-0.0997749196338399
 40
-0.0997749196338399
 40
-0.0933348845998503
 40
-0.0933348845998503
 40
-0.0868949354153265
 40
-0.0868949354153265
 40
-0.0804549862308027
 40
-0.0804549862308027
 40
-0.0740150552332281
 40
-0.0740150552332281
 40
-0.0675751242356536
 40
-0.0675751242356536
 40
-0.0611351301176035
 40
-0.0611351301176035
 40
-0.0546951359995534
 40
-0.0546951359995534
 40
-0.0482550416187737
 40
-0.0482550416187737
 40
-0.041814947237994
 40
-0.041814947237994
 40
-0.0353747297067175
 40
-0.0353747297067175
 40
-0.028934512175441
 40
-0.028934512175441
 40
-0.0224943494189459
 40
-0.0224943494189459
 40
-0.0160541866624508
 40
-0.0160541866624508
 40
-0.009613939375456
 40
-0.009613939375456
 40
-0.0031736920884613
 40
-0.0031736920884613
 40
-0.0031736920884613
 40
-0.0031736920884613
 10
37.99999999999982
 20
-10.17645770353496
 30
-162.038216492456
 10
37.4469977216396
 20
-12.2506577962993
 30
-162.0316568223558
 10
36.73125690204215
 20
-14.28138172662183
 30
-162.0043700629336
 10
34.9881426644138
 20
-18.20773472481511
 30
-161.9154349757454
 10
33.96084921168903
 20
-20.10305415618047
 30
-161.8538063965181
 10
31.61565011459113
 20
-23.70975941670253
 30
-161.7064417636646
 10
30.29777668825225
 20
-25.42103385057834
 30
-161.620736259941
 10
27.39974036891812
 20
-28.61298898388867
 30
-161.4377528491276
 10
25.81958522860867
 20
-30.09357261131158
 30
-161.3405115304133
 10
22.43372789073295
 20
-32.78035894649133
 30
-161.1481155818179
 10
20.62803263914125
 20
-33.9864737420127
 30
-161.0530147545641
 10
16.83656417897846
 20
-36.08575615815213
 30
-160.8782067901307
 10
14.85085166644578
 20
-36.97880694878361
 30
-160.7985667686659
 10
10.75334495923309
 20
-38.42119627145402
 30
-160.6659798235207
 10
8.641810309629026
 20
-38.9703914928679
 30
-160.613096902786
 10
4.353329542979454
 20
-39.70509725957262
 30
-160.5416401263046
 10
2.176727080678526
 20
-39.89049397318733
 30
-160.5231167790891
 10
-2.176758690122381
 20
-39.89049451225965
 30
-160.5231156397498
 10
-4.353204263564439
 20
-39.70511231884631
 30
-160.5416415457377
 10
-8.641753448354535
 20
-38.9704076775223
 30
-160.6130923409155
 10
-10.75331573169377
 20
-38.42120794300713
 30
-160.6659750569403
 10
-14.85093734160962
 20
-36.97877539063601
 30
-160.7985734036886
 10
-16.83657444393732
 20
-36.08563912883484
 30
-160.8784803650119
 10
-20.62797458768708
 20
-33.98640738540363
 30
-161.0532474114999
 10
-22.4337087190953
 20
-32.78037415676582
 30
-161.1481144995804
 10
-25.81958522643033
 20
-30.09357261640659
 30
-161.3405115224092
 10
-27.39974015645837
 20
-28.61298963874299
 30
-161.4377520407976
 10
-30.29777684166489
 20
-25.42103322354938
 30
-161.6207371344295
 10
-31.61564960988365
 20
-23.709760292915
 30
-161.7064415152797
 10
-33.96084900527968
 20
-20.10305436320273
 30
-161.8538066160961
 10
-34.98814137156358
 20
-18.20773853654481
 30
-161.9154335955805
 10
-36.73125659230337
 20
-14.28138149991963
 30
-162.0043713894464
 10
-37.44699789360203
 20
-12.25065715130567
 30
-162.0316568243956
 10
-37.99999999999967
 20
-10.17645770353911
 30
-162.038216492456
  0
ARC
  5
C3
330
1F
100
AcDbEntity
  8
0
100
AcDbCircle
 10
-0.001927175108449
 20
-0.0008412873244259
 30
-129.9990488012845
 40
51.00036014418753
210
-1.822168168719259E-5
220
-3.963598691635473E-6
230
0.9999999998261302
100
AcDbArc
 50
191.36442006964
 51
193.1741876777646
  0
ARC
  5
C4
330
1F
100
AcDbEntity
  8
0
100
AcDbCircle
 10
-0.0000819816944881
 20
0.0000454433139409
 30
-129.9999647172351
 40
51.00000926996361
210
-6.861867632703896E-7
220
-7.113402842552680E-8
230
0.9999999999997622
100
AcDbArc
 50
180.0000614396148
 51
191.3649355629628
  0
ARC
  5
C5
330
1F
100
AcDbEntity
  8
0
100
AcDbCircle
 10
9.191497512548958
 20
149.4110619483638
 30
-37.99999999999986
 40
311.4508359081496
210
-1.0
220
3.312537721729425E-16
230
3.288068091057048E-16
100
AcDbArc
 50
270.1811976385845
 51
315.2124047672149
  0
SPLINE
  5
C6
330
1F
100
AcDbEntity
  8
0
100
AcDbSpline
 70
     0
 71
     3
 72
     8
 73
     4
 74
     0
 42
0.000000001
 43
0.0000000001
 40
0.0
 40
0.0
 40
0.0
 40
0.0
 40
0.0341239445103232
 40
0.0341239445103232
 40
0.0341239445103232
 40
0.0341239445103232
 10
49.6576706385605
 20
-11.62393091841635
 30
-130.00000053624
 10
45.77238515851885
 20
-11.16827821856861
 30
-140.679105513284
 10
41.88638581525821
 20
-10.69019881503565
 30
-151.3587814767169
 10
37.99999999999982
 20
-10.17645770353496
 30
-162.038216492456
  0
SPLINE
  5
C7
330
1F
100
AcDbEntity
  8
0
100
AcDbSpline
 70
     0
 71
     3
 72
     8
 73
     4
 74
     0
 42
0.000000001
 43
0.0000000001
 40
0.0
 40
0.0
 40
0.0
 40
0.0
 40
0.0341239443528695
 40
0.0341239443528695
 40
0.0341239443528695
 40
0.0341239443528695
 10
-37.99999999999967
 20
-10.17645770353911
 30
-162.038216492456
 10
-41.88638715597827
 20
-10.69019881891397
 30
-151.3587811888991
 10
-45.77238783836512
 20
-11.16827822707561
 30
-140.6791049442861
 10
-49.65767463016702
 20
-11.62393233988667
 30
-129.9999997428317
  0
ARC
  5
C8
330
1F
100
AcDbEntity
  8
0
100
AcDbCircle
 10
9.19149751254867
 20
149.4110619483644
 30
37.99999999999918
 40
311.4508359081503
210
-1.0
220
1.845306936333081E-15
230
2.945224196788026E-15
100
AcDbArc
 50
270.1811976385854
 51
315.2124047672149
  0
ARC
  5
C9
330
1F
100
AcDbEntity
  8
0
100
AcDbCircle
 10
-0.0017791721197113
 20
125.0
 30
-70.0
 40
17.50000000000001
100
AcDbArc
 50
270.0
 51
90.0
  0
ARC
  5
CA
330
1F
100
AcDbEntity
  8
0
100
AcDbCircle
 10
0.0017791721197113
 20
125.0
 30
-0.0000000000000428
 40
17.50000000000001
210
7.746779408433566E-16
220
-3.887014851505320E-16
230
-1.0
100
AcDbArc
 50
90.00000000000001
 51
270.0
  0
SPLINE
  5
CB
330
1F
100
AcDbEntity
  8
0
100
AcDbSpline
 70
     0
 71
     3
 72
    22
 73
    18
 74
     0
 42
0.000000001
 43
0.0000000001
 40
0.0561357004168697
 40
0.0561357004168697
 40
0.0561357004168697
 40
0.0561357004168697
 40
0.0675163117692679
 40
0.0675163117692679
 40
0.0788963129709954
 40
0.0788963129709954
 40
0.0817336609005904
 40
0.0817336609005904
 40
0.08458198090664
 40
0.08458198090664
 40
0.0902646613366774
 40
0.0902646613366774
 40
0.0931068057455909
 40
0.0931068057455909
 40
0.0959489500775488
 40
0.0959489500775488
 40
0.1016301556875626
 40
0.1016301556875626
 40
0.1016301556875626
 40
0.1016301556875626
 10
-0.0000000000088978
 20
-36.00715609119223
 30
-108.5886913069762
 10
3.844574155284439
 20
-36.00715609119222
 30
-108.588691306976
 10
7.663584721157154
 20
-35.39151643622868
 30
-108.6304077863633
 10
14.9616850166122
 20
-32.97630003056332
 30
-108.7774121978695
 10
18.39331333521391
 20
-31.19241842627418
 30
-108.8807771349749
 10
22.24647674720315
 20
-28.32891557380784
 30
-109.0179024261439
 10
22.98967003540749
 20
-27.72919804329528
 30
-109.0468533896953
 10
24.43463563439871
 20
-26.46486440423243
 30
-109.0957183813684
 10
25.13042721358061
 20
-25.8050863218096
 30
-109.1138681681853
 10
27.14030926732741
 20
-23.74032495890825
 30
-109.1561976221412
 10
28.36710352478138
 20
-22.25999952895137
 30
-109.1665730541726
 10
30.02169554543428
 20
-19.90313595401691
 30
-109.1588550704352
 10
30.53983611706934
 20
-19.0985699763437
 30
-109.1508720214412
 10
31.51415238591428
 20
-17.44405814442934
 30
-109.1371860406325
 10
31.96644810376736
 20
-16.60069801348605
 30
-109.1308869432306
 10
33.22477960335222
 20
-14.01114086832608
 30
-109.113624497883
 10
33.92418986703814
 20
-12.22078059835012
 30
-109.1044550429215
 10
34.47758506216466
 20
-10.38322772824907
 30
-109.0977365690688
  0
SPLINE
  5
CC
330
1F
100
AcDbEntity
  8
0
100
AcDbSpline
 70
     0
 71
     3
 72
    26
 73
    22
 74
     0
 42
0.000000001
 43
0.0000000001
 40
0.1016301556875626
 40
0.1016301556875626
 40
0.1016301556875626
 40
0.1016301556875626
 40
0.1099557632915968
 40
0.1099557632915968
 40
0.1141256100556742
 40
0.1141256100556742
 40
0.1182953752572565
 40
0.1182953752572565
 40
0.1266209289494807
 40
0.1266209289494807
 40
0.1307907311886986
 40
0.1307907311886986
 40
0.1349605558216581
 40
0.1349605558216581
 40
0.1432863536036842
 40
0.1432863536036842
 40
0.1516116878138992
 40
0.1516116878138992
 40
0.1599371017575097
 40
0.1599371017575097
 40
0.1682627647464817
 40
0.1682627647464817
 40
0.1682627647464817
 40
0.1682627647464817
 10
34.47758506216466
 20
-10.38322772824907
 30
-109.0977365690688
 10
35.28476113898887
 20
-7.702993548935759
 30
-109.0879370778293
 10
35.77665197681943
 20
-4.937786501610576
 30
-109.0835283923985
 10
36.02675398692285
 20
-0.7441362939415918
 30
-109.081677876765
 10
36.02860494945979
 20
0.6483519195956768
 30
-109.0812127127254
 10
35.86912621879397
 20
3.447672001276616
 30
-109.0924230780279
 10
35.70914252580273
 20
4.830922776944205
 30
-109.0970493776604
 10
34.98438961527215
 20
8.969001281300207
 30
-109.1084670882208
 10
34.18163629798863
 20
11.66045695144716
 30
-109.1121314345481
 10
32.52117492685352
 20
15.51946825786475
 30
-109.1211539728781
 10
31.89728520801324
 20
16.76436276867463
 30
-109.1241000320298
 10
30.49727689376666
 20
19.19366525330568
 30
-109.1426239588997
 10
29.73299820959241
 20
20.35753244511186
 30
-109.1578850969093
 10
27.22677518514516
 20
23.72871666566448
 30
-109.2219446008612
 10
25.30110579683793
 20
25.77203927852153
 30
-109.2889828460858
 10
21.0162596131563
 20
29.3710728988277
 30
-109.4540097551275
 10
18.67159353944441
 20
30.91461533190382
 30
-109.5525033702969
 10
13.67246052527848
 20
33.42762060811704
 30
-109.7305192774561
 10
11.03446037716563
 20
34.38876781672829
 30
-109.8113262236988
 10
5.588610576356696
 20
35.6807310482081
 30
-109.9310174505059
 10
2.799313130282119
 20
36.0071560911922
 30
-109.9692834640858
 10
0.0000000000038915
 20
36.0071560911922
 30
-109.9692834640859
  0
ARC
  5
CD
330
1F
100
AcDbEntity
  8
0
100
AcDbCircle
 10
0.0
 20
-0.0000000000000071
 30
-113.0
 40
36.00715609119221
100
AcDbArc
 50
270.0
 51
90.0
  0
ARC
  5
CE
330
1F
100
AcDbEntity
  8
0
100
AcDbCircle
 10
25.00000000000349
 20
-26.8802689379416
 30
-229.9999999999997
 40
1.880268937941601
210
-1.511576820575374E-14
220
1.0
230
0.0
100
AcDbArc
 50
270.0
 51
0.0
  0
LINE
  5
CF
330
1F
100
AcDbEntity
  8
0
100
AcDbLine
 10
-24.99999999999996
 20
-221.0688033072458
 30
-28.76053787588321
 11
-25.00000000000001
 21
-230.0000000000001
 31
-28.76053787588319
  0
SPLINE
  5
D0
330
1F
100
AcDbEntity
  8
0
100
AcDbSpline
 70
     0
 71
     3
 72
    20
 73
    16
 74
     0
 42
0.000000001
 43
0.0000000001
 40
0.0
 40
0.0
 40
0.0
 40
0.0
 40
0.0004689955810935
 40
0.0004689955810935
 40
0.0007123514359332
 40
0.0007123514359332
 40
0.0009557072907728
 40
0.0009557072907728
 40
0.0014331993847245
 40
0.0014331993847245
 40
0.0019276950976017
 40
0.0019276950976017
 40
0.0028589903218172
 40
0.0028589903218172
 40
0.0038088173240971
 40
0.0038088173240971
 40
0.0038088173240971
 40
0.0038088173240971
 10
-24.99999999999996
 20
-221.0688033072458
 30
-28.76053787588321
 10
-25.23067319243156
 20
-221.0676200713732
 30
-28.7605378758831
 10
-25.43596925860549
 20
-221.1172883697017
 30
-28.718011818945
 10
-25.69304235854644
 20
-221.221305134379
 30
-28.63061397519096
 10
-25.77145651199965
 20
-221.2619052202006
 30
-28.59672269733901
 10
-25.90942961459554
 20
-221.3442846812636
 30
-28.52778113339037
 10
-25.97106614824112
 20
-221.3869882556435
 30
-28.49191298753723
 10
-26.14550548257577
 20
-221.5231311919935
 30
-28.37770128882092
 10
-26.24477194032566
 20
-221.622495787233
 30
-28.29441207820622
 10
-26.41433674746722
 20
-221.8246990951297
 30
-28.1252240774233
 10
-26.48137958638817
 20
-221.9226854077787
 30
-28.04318848290009
 10
-26.65783855808878
 20
-222.224842453195
 30
-27.79000307041061
 10
-26.74491235031877
 20
-222.443118420534
 30
-27.60653436201148
 10
-26.85669898461432
 20
-222.8837242686189
 30
-27.23569453605296
 10
-26.88026893794162
 20
-223.1060483877354
 30
-27.04888606723363
 10
-26.88026893794162
 20
-223.3058841957717
 30
-26.88026893793885
  0
SPLINE
  5
D1
330
1F
100
AcDbEntity
  8
0
100
AcDbSpline
210
0.0
220
0.0
230
1.0
 70
     8
 71
     3
 72
    10
 73
     6
 74
     0
 42
0.000000001
 43
0.0000000001
 40
0.0
 40
0.0
 40
0.0
 40
0.0
 40
0.0250000000074291
 40
0.0250000000074291
 40
0.0500000000148583
 40
0.0500000000148583
 40
0.0500000000148583
 40
0.0500000000148583
 10
25.00000000000001
 20
-221.0700222514118
 30
-28.76053787588314
 10
16.66666563907444
 20
-221.111970009262
 30
-28.76053787588315
 10
8.333331763741933
 20
-221.1339991757221
 30
-28.76053787588316
 10
-8.333334912830079
 20
-221.1339991700696
 30
-28.76053787588318
 10
-16.66666770380736
 20
-221.1115490533294
 30
-28.76053787588319
 10
-24.99999999999996
 20
-221.0688033072458
 30
-28.76053787588321
  0
SPLINE
  5
D2
330
1F
100
AcDbEntity
  8
0
100
AcDbSpline
210
0.0
220
0.0
230
1.0
 70
    24
 71
     2
 72
     6
 73
     3
 74
     0
 42
0.000000001
 43
0.0000000001
 40
0.0
 40
0.0
 40
0.0
 40
0.05
 40
0.05
 40
0.05
 10
-25.00000000000001
 20
-230.0000000000001
 30
-28.76053787588319
 10
-0.0000000000000089
 20
-230.0000000000001
 30
-28.76053787588319
 10
24.99999999999999
 20
-230.0000000000001
 30
-28.76053787588319
  0
SPLINE
  5
D3
330
1F
100
AcDbEntity
  8
0
100
AcDbSpline
210
0.0
220
0.0
230
1.0
 70
    24
 71
     2
 72
     6
 73
     3
 74
     0
 42
0.000000001
 43
0.0000000001
 40
0.0
 40
0.0
 40
0.0
 40
0.0089299777485882
 40
0.0089299777485882
 40
0.0089299777485882
 10
24.99999999999999
 20
-230.0000000000001
 30
-28.76053787588319
 10
25.0
 20
-225.5350111257059
 30
-28.76053787588317
 10
25.00000000000001
 20
-221.0700222514118
 30
-28.76053787588314
  0
ARC
  5
D4
330
1F
100
AcDbEntity
  8
0
100
AcDbCircle
 10
-24.99999999999999
 20
-26.88026893794159
 30
-230.0000000000001
 40
1.880268937941604
210
0.0
220
1.0
230
0.0
100
AcDbArc
 50
89.9999999999999
 51
270.0
  0
LINE
  5
D5
330
1F
100
AcDbEntity
  8
0
100
AcDbLine
 10
24.99999999999999
 20
-225.5254295317495
 30
-24.99999999999996
 11
24.99999999999999
 21
-230.0000000000001
 31
-24.99999999999999
  0
SPLINE
  5
D6
330
1F
100
AcDbEntity
  8
0
100
AcDbSpline
210
0.0
220
0.0
230
1.0
 70
     8
 71
     3
 72
     8
 73
     4
 74
     0
 42
0.000000001
 43
0.0000000001
 40
0.0
 40
0.0
 40
0.0
 40
0.0
 40
0.0500000000098268
 40
0.0500000000098268
 40
0.0500000000098268
 40
0.0500000000098268
 10
-25.00000000000005
 20
-225.5244382296066
 30
-24.99999999999999
 10
-8.333334765733143
 20
-225.5970170587542
 30
-24.99999999999998
 10
8.333331913581295
 20
-225.5967095591713
 30
-24.99999999999997
 10
24.99999999999999
 20
-225.5254295317495
 30
-24.99999999999996
  0
SPLINE
  5
D7
330
1F
100
AcDbEntity
  8
0
100
AcDbSpline
210
0.0
220
0.0
230
1.0
 70
    24
 71
     2
 72
     6
 73
     3
 74
     0
 42
0.000000001
 43
0.0000000001
 40
-0.05
 40
-0.05
 40
-0.05
 40
0.0
 40
0.0
 40
0.0
 10
24.99999999999999
 20
-230.0000000000001
 30
-24.99999999999999
 10
-0.0000000000000089
 20
-230.0000000000001
 30
-24.99999999999999
 10
-25.00000000000001
 20
-230.0000000000001
 30
-24.99999999999999
  0
LINE
  5
D8
330
1F
100
AcDbEntity
  8
0
100
AcDbLine
 10
-300.0000000000001
 20
-34.99999999999977
 30
-70.0
 11
-212.0000000000001
 21
-34.99999999999977
 31
-70.0
  0
LINE
  5
D9
330
1F
100
AcDbEntity
  8
0
100
AcDbLine
 10
212.0
 20
-34.99999999999977
 30
-70.0
 11
299.9999999999999
 21
-34.99999999999977
 31
-70.0
  0
LINE
  5
DA
330
1F
100
AcDbEntity
  8
0
100
AcDbLine
 10
-0.0000000000000021
 20
-264.9999999999998
 30
-70.0
 11
-0.0000000000000021
 21
-230.2354051023678
 31
-70.0
  0
LINE
  5
DB
330
1F
100
AcDbEntity
  8
0
100
AcDbLine
 10
-0.0000000000000021
 20
85.99999999999997
 30
-70.0
 11
-0.0000000000000021
 21
107.5000000904416
 31
-70.0
  0
LINE
  5
DC
330
1F
100
AcDbEntity
  8
0
100
AcDbLine
 10
-0.0000000000000021
 20
142.4999999095585
 30
-70.0
 11
-0.0000000000000021
 21
195.0000000000001
 31
-70.0
  0
LINE
  5
DD
330
1F
100
AcDbEntity
  8
0
100
AcDbLine
 10
-297.5555461355776
 20
-34.99999999999983
 30
-0.0000000000000225
 11
-287.5
 21
-34.99999999999983
 31
-0.0000000000000225
  0
LINE
  5
DE
330
1F
100
AcDbEntity
  8
0
100
AcDbLine
 10
287.5000000000001
 20
-34.99999999999983
 30
-0.0000000000000225
 11
297.5555461355776
 21
-34.99999999999983
 31
-0.0000000000000225
  0
LINE
  5
DF
330
1F
100
AcDbEntity
  8
0
100
AcDbLine
 10
-0.0000000000000568
 20
192.5555461355778
 30
-0.0000000000000225
 11
-0.0000000000000568
 21
142.4999999095586
 31
-0.0000000000000225
  0
LINE
  5
E0
330
1F
100
AcDbEntity
  8
0
100
AcDbLine
 10
-0.0000000000000568
 20
107.5000000904416
 30
-0.0000000000000225
 11
-0.0000000000000568
 21
81.17744748226428
 31
-0.0000000000000225
  0
LINE
  5
E1
330
1F
100
AcDbEntity
  8
0
100
AcDbLine
 10
-0.0000000000000568
 20
-251.8225525177358
 30
-0.0000000000000225
 11
-0.0000000000000568
 21
-262.5555461355775
 31
-0.0000000000000225
  0
ARC
  5
E2
330
1F
100
AcDbEntity
  8
0
100
AcDbCircle
 10
25.00000000000001
 20
-26.8802689379416
 30
-226.6529420978858
 40
1.880268937941601
210
0.0
220
1.0
230
0.0
100
AcDbArc
 50
0.0
 51
90.0
  0
ARC
  5
E3
330
1F
100
AcDbEntity
  8
0
100
AcDbCircle
 10
0.0
 20
0.0
 30
110.7943456534882
 40
36.00715609119221
210
0.0
220
-6.123233995736757E-17
230
-1.0
100
AcDbArc
 50
270.0
 51
89.99999999999999
  0
LINE
  5
E4
330
1F
100
AcDbEntity
  8
0
100
AcDbLine
 10
-36.00715609119221
 20
-0.0000000000000067
 30
-109.0424028208936
 11
-36.00715609119221
 21
-0.0000000000000069
 31
-113.0
  0
ARC
  5
E5
330
1F
100
AcDbEntity
  8
0
100
AcDbCircle
 10
-0.0017791721197113
 20
125.0
 30
-35.0
 40
17.50000000000001
100
AcDbArc
 50
90.0
 51
270.0
  0
LINE
  5
E6
330
1F
100
AcDbEntity
  8
0
100
AcDbLine
 10
-17.50177917211973
 20
125.0
 30
-70.0
 11
-17.50177917211973
 21
125.0
 31
-0.0000000000000136
  0
ARC
  5
E7
330
1F
100
AcDbEntity
  8
0
100
AcDbCircle
 10
-0.0000000000005499
 20
-0.0000000000000091
 30
-148.5
 40
44.26655066607528
100
AcDbArc
 50
0.0
 51
180.0
  0
LINE
  5
E8
330
1F
100
AcDbEntity
  8
0
100
AcDbLine
 10
-0.0000000000006808
 20
37.53310133215048
 30
-167.0
 11
-0.000000000000419
 21
50.99999999999999
 31
-130.0
  0
SPLINE
  5
E9
330
1F
100
AcDbEntity
  8
0
100
AcDbSpline
210
0.0
220
0.0
230
1.0
 70
     8
 71
     3
 72
    30
 73
    26
 74
     0
 42
0.000000001
 43
0.0000000001
 40
250.069960361063
 40
250.069960361063
 40
250.069960361063
 40
250.069960361063
 40
258.4806711963708
 40
305.8959759674706
 40
305.8959759674706
 40
353.3112807385705
 40
400.7265855096702
 40
448.14189028077
 40
495.5571950518699
 40
495.5571950518699
 40
503.7461210010022
 40
511.9350469501343
 40
520.1239728992666
 40
528.312898848399
 40
536.5018247975311
 40
544.6907507466634
 40
552.8796766957956
 40
561.0686026449279
 40
561.0686026449279
 40
573.7494399674312
 40
586.4302772899346
 40
599.1111146124379
 40
611.7919519349413
 40
611.7919519349413
 40
611.7919525680101
 40
611.7919525680101
 40
611.7919525680101
 40
611.7919525680101
 10
-14.60252801030576
 20
48.86497308862007
 30
-129.9999999999999
 10
-13.88888949828672
 20
49.07835674399031
 30
-129.9999999999999
 10
-9.121441261754713
 20
50.39068558238259
 30
-129.9999999999998
 10
-4.182023531506648
 20
50.99999999999999
 30
-130.0
 10
4.182023531506633
 20
50.99999999999999
 30
-130.0
 10
12.57252013161165
 20
49.96496898448046
 30
-130.0000000000002
 10
24.41393337419485
 20
45.36958109552291
 30
-130.0000000000002
 10
34.73840888486878
 20
38.04109574431182
 30
-130.0000000000002
 10
40.18170731272164
 20
31.67795304776445
 30
-130.0000000000003
 10
42.86381418606771
 20
27.64421023400942
 30
-130.0000000000003
 10
43.61929675597159
 20
26.4543744962978
 30
-130.0000000000003
 10
44.65849043377676
 20
24.65804487994045
 30
-130.0000000000003
 10
45.61316563315957
 20
22.84373506329266
 30
-130.0000000000003
 10
46.48811499689581
 20
21.00537439806755
 30
-130.0000000000003
 10
47.28813116776119
 20
19.13689223597825
 30
-130.0000000000003
 10
48.01526199326811
 20
17.23126522087532
 30
-130.0000000000004
 10
48.67155532092895
 20
15.28146999660928
 30
-130.0000000000003
 10
49.06133429722972
 20
13.94558658542862
 30
-130.0000000000003
 10
49.5272594382586
 20
12.21617554091879
 30
-130.0000000000003
 10
50.04902294371782
 20
10.00872729698584
 30
-130.0000000000004
 10
50.62084482963855
 20
6.530941096472251
 30
-130.0000000000003
 10
50.94067569677706
 20
3.116403325906752
 30
-130.0000000000004
 10
51.00000000000001
 20
1.003470942279722
 30
-130.0000000000004
 10
51.00000000000001
 20
-0.0000000456502067
 30
-130.0000000000004
 10
51.00000000000002
 20
-0.0000000957467516
 30
-130.0000000000004
 10
51.00000000000003
 20
-0.0000001458432965
 30
-130.0000000000004
  0
SPLINE
  5
EA
330
1F
100
AcDbEntity
  8
0
100
AcDbSpline
210
0.0
220
0.0
230
1.0
 70
     8
 71
     3
 72
     8
 73
     4
 74
     0
 42
0.000000001
 43
0.0000000001
 40
660.5805235879543
 40
660.5805235879543
 40
660.5805235879543
 40
660.5805235879543
 40
661.4419320019738
 40
661.4419320019738
 40
661.4419320019738
 40
661.4419320019738
 10
49.74700683479816
 20
-11.23548176627252
 30
-130.0000000000003
 10
49.73258575241333
 20
-11.29933931766392
 30
-130.0000000000003
 10
49.71804528465444
 20
-11.36315290162881
 30
-130.0000000000003
 10
49.70338566704841
 20
-11.42692231069485
 30
-130.0000000000003
  0
SPLINE
  5
EB
330
1F
100
AcDbEntity
  8
0
100
AcDbSpline
 70
     0
 71
     3
 72
     8
 73
     4
 74
     0
 42
0.000000001
 43
0.0000000001
 40
-0.0000000000000302
 40
-0.0000000000000302
 40
-0.0000000000000302
 40
-0.0000000000000302
 40
224.4882374436812
 40
224.4882374436812
 40
224.4882374436812
 40
224.4882374436812
 10
-212.0
 20
12.1490702905812
 30
-69.99999999999996
 10
-161.9572606140846
 20
9.20674499313218
 30
-98.71684898006184
 10
-107.5262359746141
 20
6.201855016024219
 30
-119.002616585317
 10
-50.90220162805988
 20
3.157259858427572
 30
-129.9999999999996
  0
SPLINE
  5
EC
330
1F
100
AcDbEntity
  8
0
100
AcDbSpline
 70
     0
 71
     3
 72
     8
 73
     4
 74
     0
 42
0.000000001
 43
0.0000000001
 40
-0.0000000000000373
 40
-0.0000000000000373
 40
-0.0000000000000373
 40
-0.0000000000000373
 40
224.4882374436813
 40
224.4882374436813
 40
224.4882374436813
 40
224.4882374436813
 10
-212.0
 20
23.43696038747952
 30
-69.99999999999996
 10
-161.7963023033317
 20
18.01866725188971
 30
-98.6576710005168
 10
-107.2681337953582
 20
12.35722824476006
 30
-118.9771755785404
 10
-50.57884632650832
 20
6.5414825014636
 30
-129.9999999999997
  0
SPLINE
  5
ED
330
1F
100
AcDbEntity
  8
0
100
AcDbSpline
 70
     0
 71
     3
 72
     8
 73
     4
 74
     0
 42
0.000000001
 43
0.0000000001
 40
-0.0000000000000444
 40
-0.0000000000000444
 40
-0.0000000000000444
 40
-0.0000000000000444
 40
224.4882374436812
 40
224.4882374436812
 40
224.4882374436812
 40
224.4882374436812
 10
-212.0
 20
34.53324554070948
 30
-69.99999999999997
 10
-161.5231998529875
 20
26.81554389328811
 30
-98.5633144245732
 10
-106.8236780978827
 20
18.56676794086792
 30
-118.9366110593314
 10
-50.01388571500663
 20
9.980958324550151
 30
-129.9999999999995
  0
SPLINE
  5
EE
330
1F
100
AcDbEntity
  8
0
100
AcDbSpline
 70
     0
 71
     3
 72
     8
 73
     4
 74
     0
 42
0.000000001
 43
0.0000000001
 40
-0.0000000000000515
 40
-0.0000000000000515
 40
-0.0000000000000515
 40
-0.0000000000000515
 40
224.4882374436813
 40
224.4882374436813
 40
224.4882374436813
 40
224.4882374436813
 10
-212.0000000000001
 20
45.99999998989529
 30
-69.99999999999996
 10
-161.1533733226391
 20
35.89315754871139
 30
-98.4372756622026
 10
-106.219938655467
 20
24.8706343981356
 30
-118.8824261575785
 10
-49.2441550809668
 20
13.26699628256926
 30
-129.9999999999996
  0
SPLINE
  5
EF
330
1F
100
AcDbEntity
  8
0
100
AcDbSpline
 70
     0
 71
     3
 72
     8
 73
     4
 74
     0
 42
0.000000001
 43
0.0000000001
 40
-0.000000000000046
 40
-0.000000000000046
 40
-0.000000000000046
 40
-0.000000000000046
 40
224.4882374436813
 40
224.4882374436813
 40
224.4882374436813
 40
224.4882374436813
 10
-211.2527845074402
 20
53.69608052555645
 30
-69.99999999999999
 10
-160.3735953458535
 20
41.95121256358902
 30
-98.34068619246885
 10
-105.5117552337068
 20
28.99592179894192
 30
-118.8409017024866
 10
-48.65961784372751
 20
15.27246501452513
 30
-129.9999999999997
  0
SPLINE
  5
F0
330
1F
100
AcDbEntity
  8
0
100
AcDbSpline
 70
     0
 71
     3
 72
     8
 73
     4
 74
     0
 42
0.000000001
 43
0.0000000001
 40
-0.0000000000000404
 40
-0.0000000000000404
 40
-0.0000000000000404
 40
-0.0000000000000404
 40
224.4882374436813
 40
224.4882374436813
 40
224.4882374436813
 40
224.4882374436813
 10
-208.9902631120003
 20
61.22270830798773
 30
-69.99999999999996
 10
-158.5500231393359
 20
47.90726490925078
 30
-98.23328424403418
 10
-104.2429488676533
 20
33.05366241119546
 30
-118.794728890928
 10
-48.00345574362728
 20
17.22390385268148
 30
-129.9999999999996
  0
SPLINE
  5
F1
330
1F
100
AcDbEntity
  8
0
100
AcDbSpline
 70
     0
 71
     3
 72
     8
 73
     4
 74
     0
 42
0.000000001
 43
0.0000000001
 40
-0.0000000000000349
 40
-0.0000000000000349
 40
-0.0000000000000349
 40
-0.0000000000000349
 40
224.4882374436813
 40
224.4882374436813
 40
224.4882374436813
 40
224.4882374436813
 10
-205.2538923395469
 20
68.23040612077287
 30
-69.99999999999997
 10
-155.7112453725897
 20
53.52893601443714
 30
-98.11601140158827
 10
-102.4282250146968
 20
36.9314495479076
 30
-118.7443125164199
 10
-47.27598361020159
 20
19.13070142714267
 30
-129.9999999999996
  0
SPLINE
  5
F2
330
1F
100
AcDbEntity
  8
0
100
AcDbSpline
 70
     0
 71
     3
 72
     8
 73
     4
 74
     0
 42
0.000000001
 43
0.0000000001
 40
-0.0000000000000293
 40
-0.0000000000000293
 40
-0.0000000000000293
 40
-0.0000000000000293
 40
224.4882374436813
 40
224.4882374436813
 40
224.4882374436813
 40
224.4882374436813
 10
-200.1834627969694
 20
74.38493276004444
 30
-69.99999999999997
 10
-151.950776721944
 20
58.5933739097801
 30
-97.98980924982084
 10
-100.1138070648559
 20
40.52069371332406
 30
-118.6900573724791
 10
-46.47562613141743
 20
21.00035414859022
 30
-129.9999999999997
  0
SPLINE
  5
F3
330
1F
100
AcDbEntity
  8
0
100
AcDbSpline
 70
     0
 71
     3
 72
     8
 73
     4
 74
     0
 42
0.000000001
 43
0.0000000001
 40
-0.0000000000000238
 40
-0.0000000000000238
 40
-0.0000000000000238
 40
-0.0000000000000238
 40
224.4882374436813
 40
224.4882374436813
 40
224.4882374436813
 40
224.4882374436813
 10
-194.009042686636
 20
79.40080645164683
 30
-69.99999999999997
 10
-147.4220069269284
 20
62.91002229932766
 30
-97.85561937342169
 10
-97.37539093907165
 20
43.72863732881068
 30
-118.6323682526229
 10
-45.59987799388529
 20
22.83972658852981
 30
-129.9999999999996
  0
SPLINE
  5
F4
330
1F
100
AcDbEntity
  8
0
100
AcDbSpline
 70
     0
 71
     3
 72
     8
 73
     4
 74
     0
 42
0.000000001
 43
0.0000000001
 40
-0.0000000000000182
 40
-0.0000000000000182
 40
-0.0000000000000182
 40
-0.0000000000000182
 40
224.4882374436813
 40
224.4882374436813
 40
224.4882374436813
 40
224.4882374436813
 10
-187.029055333748
 20
83.0693560591546
 30
-69.99999999999996
 10
-142.3232858544579
 20
66.33932026608952
 30
-97.71438335708046
 10
-94.31023769022286
 20
46.48770293592654
 30
-118.5716499503682
 10
-44.64440402070652
 20
24.65504817989206
 30
-129.9999999999997
  0
SPLINE
  5
F5
330
1F
100
AcDbEntity
  8
0
100
AcDbSpline
 70
     0
 71
     3
 72
     8
 73
     4
 74
     0
 42
0.000000001
 43
0.0000000001
 40
-0.0000000000000127
 40
-0.0000000000000127
 40
-0.0000000000000127
 40
-0.0000000000000127
 40
224.4882374436813
 40
224.4882374436813
 40
224.4882374436813
 40
224.4882374436813
 10
-179.5793586685113
 20
85.27547314023732
 30
-70.0
 10
-136.877505116389
 20
68.80404762438063
 30
-97.56704278548702
 10
-91.02725725606624
 20
48.76143184474599
 30
-118.5083072592321
 10
-43.60362505979661
 20
26.45244516133283
 30
-129.9999999999997
  0
SPLINE
  5
F6
330
1F
100
AcDbEntity
  8
0
100
AcDbSpline
 70
     0
 71
     3
 72
     8
 73
     4
 74
     0
 42
0.000000001
 43
0.0000000001
 40
-0.0000000000000071
 40
-0.0000000000000071
 40
-0.0000000000000071
 40
-0.0000000000000071
 40
224.4882374436813
 40
224.4882374436813
 40
224.4882374436813
 40
224.4882374436813
 10
-171.999999986062
 20
86.00000000000003
 30
-70.00000000000001
 10
-131.3093005557224
 20
70.29102547355937
 30
-97.414539243331
 10
-87.6346586717174
 20
50.54549718799521
 30
-118.4427449727316
 10
-42.46881592264435
 20
28.23826613176805
 30
-129.9999999999997
  0
SPLINE
  5
F7
330
1F
100
AcDbEntity
  8
0
100
AcDbSpline
 70
     0
 71
     3
 72
     8
 73
     4
 74
     0
 42
0.000000001
 43
0.0000000001
 40
-0.0000000000000062
 40
-0.0000000000000062
 40
-0.0000000000000062
 40
-0.0000000000000062
 40
224.4882374436814
 40
224.4882374436814
 40
224.4882374436814
 40
224.4882374436814
 10
-128.6467412440714
 20
85.99999999999999
 30
-70.00000000000001
 10
-98.86892179965649
 20
75.94505921678633
 30
-96.4780876789464
 10
-67.11698035733855
 20
58.99598925644314
 30
-118.0401582203848
 10
-34.37848757338637
 20
37.67172429537683
 30
-129.9999999999996
  0
SPLINE
  5
F8
330
1F
100
AcDbEntity
  8
0
100
AcDbSpline
 70
     0
 71
     3
 72
     8
 73
     4
 74
     0
 42
0.000000001
 43
0.0000000001
 40
-0.0000000000000053
 40
-0.0000000000000053
 40
-0.0000000000000053
 40
-0.0000000000000053
 40
224.4882374436814
 40
224.4882374436814
 40
224.4882374436814
 40
224.4882374436814
 10
-85.68795189822133
 20
86.00000000000001
 30
-69.99999999999997
 10
-66.0195758388703
 20
80.75816152174359
 30
-95.58289177896405
 10
-45.34241028368851
 20
65.890509820562
 30
-117.6553075524012
 10
-24.16111041887664
 20
44.91406485181398
 30
-129.9999999999998
  0
SPLINE
  5
F9
330
1F
100
AcDbEntity
  8
0
100
AcDbSpline
 70
     0
 71
     3
 72
     8
 73
     4
 74
     0
 42
0.000000001
 43
0.0000000001
 40
-0.0000000000000044
 40
-0.0000000000000044
 40
-0.0000000000000044
 40
-0.0000000000000044
 40
224.4882374436814
 40
224.4882374436814
 40
224.4882374436814
 40
224.4882374436814
 10
-42.88307663774928
 20
86.0
 30
-70.0
 10
-32.97572139614822
 20
84.07135055912904
 30
-94.91173386776319
 10
-22.78331829528769
 20
70.46885420988687
 30
-117.3667723050288
 10
-12.44846485534926
 20
49.45782875686743
 30
-129.9999999999998
  0
SPLINE
  5
FA
330
1F
100
AcDbEntity
  8
0
100
AcDbSpline
210
-1.0
220
2.829787823784214E-15
230
-2.531486496743415E-15
 70
     8
 71
     3
 72
     8
 73
     4
 74
     0
 42
0.000000001
 43
0.0000000001
 40
-0.0000000000000036
 40
-0.0000000000000036
 40
-0.0000000000000036
 40
-0.0000000000000036
 40
224.4882374436815
 40
224.4882374436815
 40
224.4882374436815
 40
224.4882374436815
 10
-0.0000000000000622
 20
86.0
 30
-69.99999999999999
 10
-0.0000000000000018
 20
85.29379217753237
 30
-94.64739626972329
 10
-0.0000000000000013
 20
72.10711310973613
 30
-117.2531318145168
 10
-0.0000000000000093
 20
50.99999999999999
 30
-130.0
  0
SPLINE
  5
FB
330
1F
100
AcDbEntity
  8
0
100
AcDbSpline
 70
     0
 71
     3
 72
     8
 73
     4
 74
     0
 42
0.000000001
 43
0.0000000001
 40
-0.0000000000000027
 40
-0.0000000000000027
 40
-0.0000000000000027
 40
-0.0000000000000027
 40
224.4882374436816
 40
224.4882374436816
 40
224.4882374436816
 40
224.4882374436816
 10
42.88307663774924
 20
86.00000000000006
 30
-69.99999999999999
 10
32.99156264136779
 20
84.07135055912909
 30
-94.9453013660886
 10
22.79330886583381
 20
70.46885420988687
 30
-117.4025201790099
 10
12.44846485534925
 20
49.45782875686739
 30
-130.0000000000001
  0
SPLINE
  5
FC
330
1F
100
AcDbEntity
  8
0
100
AcDbSpline
 70
     0
 71
     3
 72
     8
 73
     4
 74
     0
 42
0.000000001
 43
0.0000000001
 40
-0.0000000000000018
 40
-0.0000000000000018
 40
-0.0000000000000018
 40
-0.0000000000000018
 40
224.4882374436816
 40
224.4882374436816
 40
224.4882374436816
 40
224.4882374436816
 10
85.68795189822117
 20
85.99999999999994
 30
-69.99999999999997
 10
66.07563829034719
 20
80.75816152174357
 30
-95.70168775869745
 10
45.37776709236763
 20
65.89050982056199
 30
-117.781819920756
 10
24.16111041887658
 20
44.91406485181395
 30
-130.0000000000002
  0
SPLINE
  5
FD
330
1F
100
AcDbEntity
  8
0
100
AcDbSpline
 70
     0
 71
     3
 72
     8
 73
     4
 74
     0
 42
0.000000001
 43
0.0000000001
 40
-0.0000000000000009
 40
-0.0000000000000009
 40
-0.0000000000000009
 40
-0.0000000000000009
 40
224.4882374436817
 40
224.4882374436817
 40
224.4882374436817
 40
224.4882374436817
 10
128.6467412440713
 20
86.00000000000004
 30
-70.00000000000003
 10
98.97863162432687
 20
75.94505921678642
 30
-96.71056210282049
 10
67.18617086147995
 20
58.99598925644316
 30
-118.2877330121591
 10
34.37848757338625
 20
37.67172429537679
 30
-130.0000000000002
  0
SPLINE
  5
FE
330
1F
100
AcDbEntity
  8
0
100
AcDbSpline
 70
     0
 71
     3
 72
     8
 73
     4
 74
     0
 42
0.000000001
 43
0.0000000001
 40
0.0
 40
0.0
 40
0.0
 40
0.0
 40
224.4882374436817
 40
224.4882374436817
 40
224.4882374436817
 40
224.4882374436817
 10
171.9999999860619
 20
86.0
 30
-70.00000000000001
 10
131.4751301264205
 20
70.29102547355936
 30
-97.76593105372827
 10
87.7392421183925
 20
50.54549718799517
 30
-118.8169614256227
 10
42.46881592264409
 20
28.23826613176796
 30
-130.0000000000003
  0
SPLINE
  5
FF
330
1F
100
AcDbEntity
  8
0
100
AcDbSpline
 70
     0
 71
     3
 72
     8
 73
     4
 74
     0
 42
0.000000001
 43
0.0000000001
 40
0.0000000000000036
 40
0.0000000000000036
 40
0.0000000000000036
 40
0.0000000000000036
 40
224.4882374436817
 40
224.4882374436817
 40
224.4882374436817
 40
224.4882374436817
 10
179.5793586685111
 20
85.27547314023725
 30
-70.00000000000001
 10
137.0524739318485
 20
68.80404762438053
 30
-97.93780059767064
 10
91.13760453432525
 20
48.76143184474592
 30
-118.9031476318638
 10
43.60362505979634
 20
26.45244516133272
 30
-130.0000000000003
  0
SPLINE
  5
100
330
1F
100
AcDbEntity
  8
0
100
AcDbSpline
 70
     0
 71
     3
 72
     8
 73
     4
 74
     0
 42
0.000000001
 43
0.0000000001
 40
0.0000000000000071
 40
0.0000000000000071
 40
0.0000000000000071
 40
0.0000000000000071
 40
224.4882374436817
 40
224.4882374436817
 40
224.4882374436817
 40
224.4882374436817
 10
187.0290553337482
 20
83.06935605915459
 30
-70.00000000000001
 10
142.5070845077566
 20
66.33932026608953
 30
-98.1038515397404
 10
94.42615366694073
 20
46.48770293592651
 30
-118.9864160249221
 10
44.64440402070619
 20
24.65504817989197
 30
-130.0000000000003
  0
SPLINE
  5
101
330
1F
100
AcDbEntity
  8
0
100
AcDbSpline
 70
     0
 71
     3
 72
     8
 73
     4
 74
     0
 42
0.000000001
 43
0.0000000001
 40
0.0000000000000107
 40
0.0000000000000107
 40
0.0000000000000107
 40
0.0000000000000107
 40
224.4882374436817
 40
224.4882374436817
 40
224.4882374436817
 40
224.4882374436817
 10
194.0090426866357
 20
79.40080645164664
 30
-70.0
 10
147.6142695837785
 20
62.91002229932745
 30
-98.26302272601987
 10
97.4966448941752
 20
43.72863732881055
 30
-119.0662344754377
 10
45.59987799388497
 20
22.8397265885297
 30
-130.0000000000003
  0
SPLINE
  5
102
330
1F
100
AcDbEntity
  8
0
100
AcDbSpline
 70
     0
 71
     3
 72
     8
 73
     4
 74
     0
 42
0.000000001
 43
0.0000000001
 40
0.0000000000000142
 40
0.0000000000000142
 40
0.0000000000000142
 40
0.0000000000000142
 40
224.4882374436817
 40
224.4882374436817
 40
224.4882374436817
 40
224.4882374436817
 10
200.1834627969698
 20
74.38493276004453
 30
-70.00000000000001
 10
152.1510811206952
 20
58.59337390978006
 30
-98.41425300259151
 10
100.240132691325
 20
40.52069371332404
 30
-119.142070854051
 10
46.47562613141715
 20
21.00035414859011
 30
-130.0000000000003
  0
SPLINE
  5
103
330
1F
100
AcDbEntity
  8
0
100
AcDbSpline
 70
     0
 71
     3
 72
     8
 73
     4
 74
     0
 42
0.000000001
 43
0.0000000001
 40
0.0000000000000178
 40
0.0000000000000178
 40
0.0000000000000178
 40
0.0000000000000178
 40
224.4882374436818
 40
224.4882374436818
 40
224.4882374436818
 40
224.4882374436818
 10
205.2538923395466
 20
68.230406120773
 30
-69.99999999999997
 10
155.9191128242249
 20
53.52893601443719
 30
-98.5564812155377
 10
102.5593204185625
 20
36.93144954790762
 30
-119.2133930314018
 10
47.27598361020122
 20
19.13070142714259
 30
-130.0000000000003
  0
SPLINE
  5
104
330
1F
100
AcDbEntity
  8
0
100
AcDbSpline
 70
     0
 71
     3
 72
     8
 73
     4
 74
     0
 42
0.000000001
 43
0.0000000001
 40
0.0000000000000213
 40
0.0000000000000213
 40
0.0000000000000213
 40
0.0000000000000213
 40
224.4882374436818
 40
224.4882374436818
 40
224.4882374436818
 40
224.4882374436818
 10
208.9902631120005
 20
61.22270830798772
 30
-69.99999999999997
 10
158.7649185274758
 20
47.90726490925076
 30
-98.68864621094082
 10
104.3784765680002
 20
33.05366241119543
 30
-119.2796688781306
 10
48.00345574362687
 20
17.2239038526814
 30
-130.0000000000004
  0
SPLINE
  5
105
330
1F
100
AcDbEntity
  8
0
100
AcDbSpline
 70
     0
 71
     3
 72
     8
 73
     4
 74
     0
 42
0.000000001
 43
0.0000000001
 40
0.0000000000000249
 40
0.0000000000000249
 40
0.0000000000000249
 40
0.0000000000000249
 40
224.4882374436818
 40
224.4882374436818
 40
224.4882374436818
 40
224.4882374436818
 10
211.2527845074399
 20
53.6960805255564
 30
-69.99999999999999
 10
160.5949271267531
 20
41.95121256358897
 30
-98.80968683488322
 10
105.6513421626709
 20
28.99592179894187
 30
-119.3403662648773
 10
48.65961784372711
 20
15.27246501452506
 30
-130.0000000000003
  0
SPLINE
  5
106
330
1F
100
AcDbEntity
  8
0
100
AcDbSpline
 70
     0
 71
     3
 72
     8
 73
     4
 74
     0
 42
0.000000001
 43
0.0000000001
 40
0.0000000000000284
 40
0.0000000000000284
 40
0.0000000000000284
 40
0.0000000000000284
 40
224.4882374436818
 40
224.4882374436818
 40
224.4882374436818
 40
224.4882374436818
 10
212.0000000000001
 20
45.99999998989529
 30
-69.99999999999997
 10
161.3804935251898
 20
35.89315754871138
 30
-98.91854193344733
 10
106.3631761582372
 20
24.87063439813557
 30
-119.394953062282
 10
49.24415508096641
 20
13.2669962825692
 30
-130.0000000000003
  0
SPLINE
  5
107
330
1F
100
AcDbEntity
  8
0
100
AcDbSpline
 70
     0
 71
     3
 72
     8
 73
     4
 74
     0
 42
0.000000001
 43
0.0000000001
 40
0.0000000000000262
 40
0.0000000000000262
 40
0.0000000000000262
 40
0.0000000000000262
 40
224.4882374436818
 40
224.4882374436818
 40
224.4882374436818
 40
224.4882374436818
 10
212.0000000000001
 20
34.53324554070949
 30
-69.99999999999997
 10
161.7578733168098
 20
26.81554389328813
 30
-99.06058600863045
 10
106.9716792027902
 20
18.5667679408679
 30
-119.4661829013695
 10
50.01388571500623
 20
9.980958324550114
 30
-130.0000000000004
  0
SPLINE
  5
108
330
1F
100
AcDbEntity
  8
0
100
AcDbSpline
 70
     0
 71
     3
 72
     8
 73
     4
 74
     0
 42
0.000000001
 43
0.0000000001
 40
0.0000000000000239
 40
0.0000000000000239
 40
0.0000000000000239
 40
0.0000000000000239
 40
224.4882374436818
 40
224.4882374436818
 40
224.4882374436818
 40
224.4882374436818
 10
212.0
 20
23.43696038747946
 30
-69.99999999999996
 10
162.0366303757631
 20
18.01866725188967
 30
-99.16692466441583
 10
107.4197010824336
 20
12.35722824476001
 30
-119.5195077959883
 10
50.57884632650794
 20
6.541482501463565
 30
-130.0000000000003
  0
SPLINE
  5
109
330
1F
100
AcDbEntity
  8
0
100
AcDbSpline
 70
     0
 71
     3
 72
     8
 73
     4
 74
     0
 42
0.000000001
 43
0.0000000001
 40
0.0000000000000217
 40
0.0000000000000217
 40
0.0000000000000217
 40
0.0000000000000217
 40
224.4882374436818
 40
224.4882374436818
 40
224.4882374436818
 40
224.4882374436818
 10
212.0000000000001
 20
12.14907029058123
 30
-69.99999999999996
 10
162.2011351093198
 20
9.206744993132205
 30
-99.23361749142862
 10
107.6800398779854
 20
6.201855016024228
 30
-119.5529517768814
 10
50.90220162805949
 20
3.157259858427572
 30
-130.0000000000004
  0
SPLINE
  5
10A
330
1F
100
AcDbEntity
  8
0
100
AcDbSpline
 70
     0
 71
     3
 72
     8
 73
     4
 74
     0
 42
0.000000001
 43
0.0000000001
 40
0.0000000000000194
 40
0.0000000000000194
 40
0.0000000000000194
 40
0.0000000000000194
 40
224.4882374436818
 40
224.4882374436818
 40
224.4882374436818
 40
224.4882374436818
 10
212.0000000000001
 20
-0.0000000000000155
 30
-69.99999999999999
 10
162.2533858140002
 20
-0.0000000000000133
 30
-99.25672408029395
 10
107.7607494487641
 20
-0.000000000000012
 30
-119.5645388747918
 10
50.99999999999972
 20
0.0000000044463382
 30
-130.0000000000003
  0
SPLINE
  5
10B
330
1F
100
AcDbEntity
  8
0
100
AcDbSpline
 70
     0
 71
     3
 72
     8
 73
     4
 74
     0
 42
0.000000001
 43
0.0000000001
 40
0.0000000000000134
 40
0.0000000000000134
 40
0.0000000000000134
 40
0.0000000000000134
 40
224.4882200249313
 40
224.4882200249313
 40
224.4882200249313
 40
224.4882200249313
 10
212.0
 20
-35.38598782237079
 30
-70.00000000000001
 10
161.9430022725293
 20
-26.44244959025355
 30
-99.37792276648186
 10
107.263468874152
 20
-17.23998791806146
 30
-119.7048510419365
 10
50.37483612329006
 20
-7.960621269500089
 30
-129.9999976035017
  0
SPLINE
  5
10C
330
1F
100
AcDbEntity
  8
0
100
AcDbSpline
210
0.0
220
0.0
230
1.0
 70
     8
 71
     3
 72
     8
 73
     4
 74
     0
 42
0.000000001
 43
0.0000000001
 40
1272.346027392516
 40
1272.346027392516
 40
1272.346027392516
 40
1272.346027392516
 40
1274.462984785632
 40
1274.462984785632
 40
1274.462984785632
 40
1274.462984785632
 10
-49.65767707021232
 20
-11.62396318778324
 30
-129.9999999999997
 10
-49.69430686687059
 20
-11.46747077601271
 30
-129.9999999999997
 10
-49.73021851584786
 20
-11.31071027533512
 30
-129.9999999999997
 10
-49.76540852132004
 20
-11.15368476517261
 30
-129.9999999999997
  0
SPLINE
  5
10D
330
1F
100
AcDbEntity
  8
0
100
AcDbSpline
 70
     0
 71
     3
 72
     8
 73
     4
 74
     0
 42
0.000000001
 43
0.0000000001
 40
-0.0000000000000084
 40
-0.0000000000000084
 40
-0.0000000000000084
 40
-0.0000000000000084
 40
124.6774940394567
 40
124.6774940394567
 40
124.6774940394567
 40
124.6774940394567
 10
-85.73177650653065
 20
-185.2154758643207
 30
-69.99999999999997
 10
-73.48051981287924
 20
-163.4259532162254
 30
-88.45541937654099
 10
-61.04928053622317
 20
-138.9729955148061
 30
-103.1202180778189
 10
-48.48806433429789
 20
-112.8964767264505
 30
-113.5108927667613
  0
SPLINE
  5
10E
330
1F
100
AcDbEntity
  8
0
100
AcDbSpline
 70
     0
 71
     3
 72
     8
 73
     4
 74
     0
 42
0.000000001
 43
0.0000000001
 40
-0.0000000000000397
 40
-0.0000000000000397
 40
-0.0000000000000397
 40
-0.0000000000000397
 40
175.8337042336157
 40
175.8337042336157
 40
175.8337042336157
 40
175.8337042336157
 10
-128.6966197822779
 20
-185.2154758643206
 30
-69.99999999999996
 10
-102.7624046615618
 20
-152.6049084955886
 30
-95.46538193410763
 10
-76.09494090724243
 20
-115.5435883262701
 30
-113.766502770223
 10
-48.98154066590473
 20
-76.4821926615201
 30
-123.700733148552
  0
SPLINE
  5
10F
330
1F
100
AcDbEntity
  8
0
100
AcDbSpline
 70
     0
 71
     3
 72
     8
 73
     4
 74
     0
 42
0.000000001
 43
0.0000000001
 40
-0.0000000000000711
 40
-0.0000000000000711
 40
-0.0000000000000711
 40
-0.0000000000000711
 40
199.7521710390026
 40
199.7521710390026
 40
199.7521710390026
 40
199.7521710390026
 10
-171.9999999859951
 20
-185.2154758643206
 30
-69.99999999999994
 10
-132.4107486000137
 20
-145.459400980061
 30
-98.1769356733958
 10
-91.30484618017942
 20
-101.2462616791614
 30
-117.6781454649419
 10
-49.35740775050103
 20
-55.36404627384926
 30
-127.0056849021145
  0
SPLINE
  5
110
330
1F
100
AcDbEntity
  8
0
100
AcDbSpline
 70
     0
 71
     3
 72
     8
 73
     4
 74
     0
 42
0.000000001
 43
0.0000000001
 40
-0.0000000000000719
 40
-0.0000000000000719
 40
-0.0000000000000719
 40
-0.0000000000000719
 40
202.540742238624
 40
202.540742238624
 40
202.540742238624
 40
202.540742238624
 10
-179.6227254411359
 20
-184.4825632265608
 30
-69.99999999999997
 10
-137.6332173155948
 20
-143.872885406701
 30
-98.43184112972921
 10
-93.97801295364084
 20
-98.92091735648471
 30
-118.0504122788337
 10
-49.40892357182967
 20
-52.3807721974907
 30
-127.3443301871118
  0
SPLINE
  5
111
330
1F
100
AcDbEntity
  8
0
100
AcDbSpline
 70
     0
 71
     3
 72
     8
 73
     4
 74
     0
 42
0.000000001
 43
0.0000000001
 40
-0.0000000000000728
 40
-0.0000000000000728
 40
-0.0000000000000728
 40
-0.0000000000000728
 40
204.9910355665109
 40
204.9910355665109
 40
204.9910355665109
 40
204.9910355665109
 10
-187.1061996865466
 20
-182.2534692665929
 30
-69.99999999999994
 10
-142.7636243614314
 20
-141.302245205993
 30
-98.63514177115938
 10
-96.60539399430255
 20
-96.14990446602047
 30
-118.3518648061054
 10
-49.46091770923826
 20
-49.49325575933948
 30
-127.6354848665981
  0
SPLINE
  5
112
330
1F
100
AcDbEntity
  8
0
100
AcDbSpline
 70
     0
 71
     3
 72
     8
 73
     4
 74
     0
 42
0.000000001
 43
0.0000000001
 40
-0.0000000000000737
 40
-0.0000000000000737
 40
-0.0000000000000737
 40
-0.0000000000000737
 40
207.1285072722446
 40
207.1285072722446
 40
207.1285072722446
 40
207.1285072722446
 10
-194.103288271341
 20
-178.553997223356
 30
-69.99999999999994
 10
-147.5690538057714
 20
-137.7743959685149
 30
-98.79150167358401
 10
-99.0693220529281
 20
-92.9578263451482
 30
-118.5893781733095
 10
-49.51131365501244
 20
-46.7227471928524
 30
-127.8849728899426
  0
SPLINE
  5
113
330
1F
100
AcDbEntity
  8
0
100
AcDbSpline
 70
     0
 71
     3
 72
     8
 73
     4
 74
     0
 42
0.000000001
 43
0.0000000001
 40
-0.0000000000000746
 40
-0.0000000000000746
 40
-0.0000000000000746
 40
-0.0000000000000746
 40
208.9856028211862
 40
208.9856028211862
 40
208.9856028211862
 40
208.9856028211862
 10
-200.2748234726613
 20
-173.5094100276666
 30
-69.99999999999994
 10
-151.8222448160841
 20
-133.379295943271
 30
-98.90650259325665
 10
-101.2552549815378
 20
-89.39561937629604
 30
-118.7708653686292
 10
-49.55855958205967
 20
-44.08028869634997
 30
-128.0987174779152
  0
SPLINE
  5
114
330
1F
100
AcDbEntity
  8
0
100
AcDbSpline
 70
     0
 71
     3
 72
     8
 73
     4
 74
     0
 42
0.000000001
 43
0.0000000001
 40
-0.0000000000000755
 40
-0.0000000000000755
 40
-0.0000000000000755
 40
-0.0000000000000755
 40
210.5993387587331
 40
210.5993387587331
 40
210.5993387587331
 40
210.5993387587331
 10
-205.32459390149
 20
-167.3397577233096
 30
-69.99999999999994
 10
-155.3252049060337
 20
-128.2667888938318
 30
-98.98628100174787
 10
-103.0640059483713
 20
-85.53913551848704
 30
-118.9048285690478
 10
-49.60248167060006
 20
-41.56702172441332
 30
-128.2825861356393
  0
SPLINE
  5
115
330
1F
100
AcDbEntity
  8
0
100
AcDbSpline
 70
     0
 71
     3
 72
     8
 73
     4
 74
     0
 42
0.000000001
 43
0.0000000001
 40
-0.0000000000000764
 40
-0.0000000000000764
 40
-0.0000000000000764
 40
-0.0000000000000764
 40
212.0110803859344
 40
212.0110803859344
 40
212.0110803859344
 40
212.0110803859344
 10
-209.0305055376097
 20
-160.3400240595084
 30
-69.99999999999996
 10
-157.9291747754974
 20
-122.6331022985527
 30
-99.03747739322704
 10
-104.4204780320313
 20
-81.48210874746333
 30
-119.0003432810198
 10
-49.64178402053933
 20
-39.17359646865044
 30
-128.4425475207539
  0
SPLINE
  5
116
330
1F
100
AcDbEntity
  8
0
100
AcDbSpline
 70
     0
 71
     3
 72
     8
 73
     4
 74
     0
 42
0.000000001
 43
0.0000000001
 40
-0.0000000000000773
 40
-0.0000000000000773
 40
-0.0000000000000773
 40
-0.0000000000000773
 40
213.2619263304999
 40
213.2619263304999
 40
213.2619263304999
 40
213.2619263304999
 10
-211.2649437280094
 20
-152.8492436927911
 30
-69.99999999999993
 10
-159.5488610424724
 20
-116.7012796689067
 30
-99.06658968974955
 10
-105.2818450344011
 20
-77.32813887038157
 30
-119.0662193416684
 10
-49.67620387915289
 20
-36.88368085046473
 30
-128.5842306796882
  0
SPLINE
  5
117
330
1F
100
AcDbEntity
  8
0
100
AcDbSpline
 70
     0
 71
     3
 72
     8
 73
     4
 74
     0
 42
0.000000001
 43
0.0000000001
 40
-0.0000000000000782
 40
-0.0000000000000782
 40
-0.0000000000000782
 40
-0.0000000000000782
 40
214.3921140007446
 40
214.3921140007446
 40
214.3921140007446
 40
214.3921140007446
 10
-212.0000000000001
 20
-145.2154758506659
 30
-69.99999999999994
 10
-160.1656590145546
 20
-110.6975375303843
 30
-99.07989249269507
 10
-105.6387843113432
 20
-73.17848056446505
 30
-119.110929527889
 10
-49.70575967312374
 20
-34.67315393881071
 30
-128.7129906219266
  0
SPLINE
  5
118
330
1F
100
AcDbEntity
  8
0
100
AcDbSpline
 70
     0
 71
     3
 72
     8
 73
     4
 74
     0
 42
0.000000001
 43
0.0000000001
 40
-0.0000000000000595
 40
-0.0000000000000595
 40
-0.0000000000000595
 40
-0.0000000000000595
 40
219.2151230559334
 40
219.2151230559334
 40
219.2151230559334
 40
219.2151230559334
 10
-212.0000000000001
 20
-108.3366362033538
 30
-69.99999999999996
 10
-160.7298237498075
 20
-81.95001086756595
 30
-99.083883860755
 10
-106.1037638757065
 20
-53.6460540074337
 30
-119.2479011418286
 10
-49.76119422543027
 20
-24.74095461234435
 30
-129.2927128643624
  0
SPLINE
  5
119
330
1F
100
AcDbEntity
  8
0
100
AcDbSpline
 70
     0
 71
     3
 72
     8
 73
     4
 74
     0
 42
0.000000001
 43
0.0000000001
 40
-0.0000000000000409
 40
-0.0000000000000409
 40
-0.0000000000000409
 40
-0.0000000000000409
 40
223.0047997016122
 40
223.0047997016122
 40
223.0047997016122
 40
223.0047997016122
 10
-211.9999999999998
 20
-71.60434857394586
 30
-70.0
 10
-161.1818609868587
 20
-53.77287109318178
 30
-99.04603873339981
 10
-106.4333248377937
 20
-34.98943550872308
 30
-119.3184990667978
 10
-49.70761192004932
 20
-15.91882890446517
 30
-129.7922848154066
  0
SPLINE
  5
11A
330
1F
100
AcDbEntity
  8
0
100
AcDbSpline
 70
     0
 71
     3
 72
     8
 73
     4
 74
     0
 42
0.000000001
 43
0.0000000001
 40
-0.0000000000000222
 40
-0.0000000000000222
 40
-0.0000000000000222
 40
-0.0000000000000222
 40
224.4882188635519
 40
224.4882188635519
 40
224.4882188635519
 40
224.4882188635519
 10
-212.0000000000001
 20
-35.38598782237092
 30
-70.0
 10
-161.7042766427185
 20
-26.44244963652262
 30
-98.87206396761451
 10
-107.1129125721599
 20
-17.23998801327852
 30
-119.1661341152452
 10
-50.37483696883888
 20
-7.960621413519215
 30
-129.9999973099533
  0
ARC
  5
11B
330
1F
100
AcDbEntity
  8
0
100
AcDbCircle
 10
0.0
 20
-0.0000000000000086
 30
-140.0
 40
22.0
100
AcDbArc
 50
90.0
 51
270.0
  0
LINE
  5
11C
330
1F
100
AcDbEntity
  8
0
100
AcDbLine
 10
-22.0
 20
-0.0000000000000102
 30
-167.0
 11
-22.0
 21
-0.0000000000000069
 31
-113.0
  0
SPLINE
  5
11D
330
1F
100
AcDbEntity
  8
0
100
AcDbSpline
 70
     0
 71
     3
 72
    42
 73
    38
 74
     0
 42
0.000000001
 43
0.0000000001
 40
848.8939787580659
 40
848.8939787580659
 40
848.8939787580659
 40
848.8939787580659
 40
889.810975622948
 40
931.9237804337165
 40
931.9237804337165
 40
944.0739744145122
 40
956.2241683953077
 40
968.3743623761036
 40
980.5245563568991
 40
992.6747503376948
 40
1004.824944318491
 40
1016.975138299286
 40
1029.125332280082
 40
1029.125332280082
 40
1079.501564048408
 40
1129.877795816735
 40
1180.254027585061
 40
1230.630259353387
 40
1230.630259353387
 40
1281.006491121713
 40
1331.38272289004
 40
1381.758954658366
 40
1432.135186426693
 40
1432.135186426693
 40
1444.285380407488
 40
1456.435574388284
 40
1468.58576836908
 40
1480.735962349875
 40
1492.886156330671
 40
1505.036350311467
 40
1517.186544292262
 40
1529.336738273058
 40
1529.336738273058
 40
1571.449543083826
 40
1613.562347894595
 40
1655.675152705363
 40
1697.787957516132
 40
1697.787957516132
 40
1697.787957516132
 40
1697.787957516132
 10
134.6866540652761
 20
-40.94260219034632
 30
-88.44843362811253
 10
134.2794313331373
 20
-47.6108009333643
 30
-88.40397132434411
 10
133.2847486936701
 20
-61.24828758737
 30
-88.29697397041063
 10
132.0109892997152
 20
-75.04384318175448
 30
-88.16533980130735
 10
131.108482788842
 20
-84.09428638531602
 30
-88.07435254045804
 10
130.3602372662818
 20
-88.18132482770002
 30
-88.03296527302558
 10
128.1672734203997
 20
-94.18951764230479
 30
-87.96932062445518
 10
124.9284811893104
 20
-99.83618630934674
 30
-87.90447086859383
 10
120.7349996280433
 20
-104.8888160408739
 30
-87.83877464557173
 10
115.741089867193
 20
-109.145176946276
 30
-87.77259059551956
 10
110.1500301269544
 20
-112.452812724201
 30
-87.70627735856782
 10
104.1944979763881
 20
-114.7226471608292
 30
-87.64019357484686
 10
100.1400711688822
 20
-115.528883547182
 30
-87.59652978127389
 10
89.79085185210319
 20
-116.7280386058268
 30
-87.4849920972972
 10
73.16750259508771
 20
-118.5416528472325
 30
-87.31068984112534
 10
48.43873263815551
 20
-120.7065930317607
 30
-87.09107264196595
 10
23.99315283315129
 20
-122.1319637769772
 30
-86.93885312488567
 10
7.945925658376669
 20
-122.4799434407064
 30
-86.89934623287212
 10
-7.945925658376669
 20
-122.4799434407064
 30
-86.89934623287212
 10
-23.99145685753052
 20
-122.1319637769771
 30
-86.93430687024065
 10
-48.43050209155714
 20
-120.706593031761
 30
-87.06900973006636
 10
-73.14984418928096
 20
-118.5416528472323
 30
-87.26335448533243
 10
-89.76571089421401
 20
-116.7280386058268
 30
-87.41759891358168
 10
-100.1101420542139
 20
-115.528883547182
 30
-87.51630140126647
 10
-104.1626944361288
 20
-114.722647160829
 30
-87.55494058484777
 10
-110.1153897022833
 20
-112.4528127242012
 30
-87.61341977875173
 10
-115.7036027080033
 20
-109.145176946276
 30
-87.67210202156161
 10
-120.6946712801492
 20
-104.8888160408737
 30
-87.73066994365134
 10
-124.8853325944423
 20
-99.83618630934717
 30
-87.78880617539446
 10
-128.1213409162105
 20
-94.18951764230431
 30
-87.84619334716524
 10
-130.3115725863406
 20
-88.18132482770028
 30
-87.90251408933712
 10
-131.0580414113936
 20
-84.09428638531602
 30
-87.93913871796866
 10
-131.9566419664112
 20
-75.04384318175453
 30
-88.01965562197154
 10
-133.2430139831478
 20
-61.04960187856724
 30
-88.13781964682308
 10
-134.7434445890634
 20
-40.302222114236
 30
-88.28141432370498
 10
-135.7160759486412
 20
-19.8900980668318
 30
-88.3781429122152
 10
-135.9510410687725
 20
-6.570571848790932
 30
-88.40257476032335
 10
-135.9510410687725
 20
-0.0000000000000054
 30
-88.4025747603233
  0
SPLINE
  5
11E
330
1F
100
AcDbEntity
  8
0
100
AcDbSpline
 70
     0
 71
     3
 72
    42
 73
    38
 74
     0
 42
0.000000001
 43
0.0000000001
 40
848.8939787580658
 40
848.8939787580658
 40
848.8939787580658
 40
848.8939787580658
 40
889.810975622948
 40
931.9237804337165
 40
931.9237804337165
 40
944.0739744145122
 40
956.2241683953077
 40
968.3743623761036
 40
980.5245563568991
 40
992.6747503376948
 40
1004.824944318491
 40
1016.975138299286
 40
1029.125332280082
 40
1029.125332280082
 40
1079.501564048408
 40
1129.877795816735
 40
1180.254027585061
 40
1230.630259353387
 40
1230.630259353387
 40
1281.006491121713
 40
1331.38272289004
 40
1381.758954658366
 40
1432.135186426693
 40
1432.135186426693
 40
1444.285380407488
 40
1456.435574388284
 40
1468.58576836908
 40
1480.735962349875
 40
1492.886156330671
 40
1505.036350311467
 40
1517.186544292262
 40
1529.336738273058
 40
1529.336738273058
 40
1571.449543083826
 40
1613.562347894595
 40
1655.675152705363
 40
1697.787957516132
 40
1697.787957516132
 40
1697.787957516132
 40
1697.787957516132
 10
46.65175813112337
 20
-14.0435260253102
 30
-107.9073006898789
 10
46.31596955256115
 20
-16.29360357060621
 30
-107.893060571021
 10
45.48565513755415
 20
-20.84975181297679
 30
-107.8587921029401
 10
44.3884754119634
 20
-25.34023734552098
 30
-107.816633104082
 10
43.59671911643258
 20
-28.23948855970544
 30
-107.7874922521865
 10
43.16203283001801
 20
-29.53481000455754
 30
-107.7742369874455
 10
42.25997118862688
 20
-31.42403714129875
 30
-107.7538532627281
 10
41.11210379917625
 20
-33.21162066192377
 30
-107.733083573506
 10
39.73674107730329
 20
-34.84915838531344
 30
-107.7120427828797
 10
38.16610024544634
 20
-36.29492037951898
 30
-107.6908457539504
 10
36.44231719180757
 20
-37.51737873752214
 30
-107.669607349819
 10
34.61400495321092
 20
-38.49896920328514
 30
-107.6484424335864
 10
33.35729693087792
 20
-38.99063702710317
 30
-107.6344580567644
 10
30.1131050929768
 20
-40.05543917999885
 30
-107.5987354391232
 10
24.7824472837574
 20
-41.62819324868802
 30
-107.5429109623255
 10
16.56767713840338
 20
-43.42809475641694
 30
-107.4725732885161
 10
8.252429258317111
 20
-44.56194304557657
 30
-107.423821338392
 10
2.731710405624103
 20
-44.82301253556633
 30
-107.4111683089649
 10
-2.731710405624103
 20
-44.82301253556633
 30
-107.4111683089649
 10
-8.252023678799528
 20
-44.56194304557653
 30
-107.4222405730607
 10
-16.56570886652613
 20
-43.42809475641703
 30
-107.4649018558834
 10
-24.77822441190666
 20
-41.62819324868796
 30
-107.5264521197773
 10
-30.10709282638079
 20
-40.05543917999885
 30
-107.5753023460152
 10
-33.35013961343753
 20
-38.99063702710317
 30
-107.6065620738924
 10
-34.60639938131589
 20
-38.49896920328509
 30
-107.6187993577997
 10
-36.4340332008379
 20
-37.51737873752217
 30
-107.6373201036369
 10
-38.15713547982487
 20
-36.29492037951899
 30
-107.6559051563999
 10
-39.72709686326875
 20
-34.84915838531342
 30
-107.674454003038
 10
-41.10178514478234
 20
-33.21162066192387
 30
-107.6928661305002
 10
-42.24898678374358
 20
-31.42403714129863
 30
-107.7110410257362
 10
-43.15039504633029
 20
-29.53481000455758
 30
-107.7288781756949
 10
-43.58465644920936
 20
-28.23948855970544
 30
-107.7404774367823
 10
-44.37547866545731
 20
-25.34023734552099
 30
-107.7659776705422
 10
-45.48708931704975
 20
-20.78507915120554
 30
-107.8034009954084
 10
-46.74298438302785
 20
-13.850990311883
 30
-107.8488783752519
 10
-47.53137841638826
 20
-6.888381514849617
 30
-107.8795129562611
 10
-47.71432573748598
 20
-2.280947377714702
 30
-107.8872506834583
 10
-47.71432573748598
 20
-0.0000000000000066
 30
-107.8872506834583
  0
SPLINE
  5
11F
330
1F
100
AcDbEntity
  8
0
100
AcDbSpline
 70
     0
 71
     3
 72
    12
 73
     8
 74
     0
 42
0.000000001
 43
0.0000000001
 40
0.0000000000001494
 40
0.0000000000001494
 40
0.0000000000001494
 40
0.0000000000001494
 40
214.0008192189742
 40
214.0008192189742
 40
323.6224113425628
 40
323.6224113425628
 40
339.119331063496
 40
339.119331063496
 40
339.119331063496
 40
339.119331063496
 10
287.4999999999997
 20
-135.8029920330818
 30
-0.0000000000000709
 10
241.3081714618771
 20
-112.0944003582136
 30
-39.72069580007454
 10
188.9229070457421
 20
-86.98300266673631
 30
-69.64945726685237
 10
104.7033599159794
 20
-47.82675063074199
 30
-97.84241833757892
 10
75.30784031283174
 20
-34.35821340267555
 30
-104.4309575453673
 10
41.20944886779331
 20
-18.84700052806078
 30
-108.34175236742
 10
36.9765097330414
 20
-16.92338590422042
 30
-108.7629410133843
 10
32.73508395413838
 20
-14.99757935259011
 30
-109.1203681168818
  0
SPLINE
  5
120
330
1F
100
AcDbEntity
  8
0
100
AcDbSpline
 70
     0
 71
     3
 72
    12
 73
     8
 74
     0
 42
0.000000001
 43
0.0000000001
 40
0.000000000000135
 40
0.000000000000135
 40
0.000000000000135
 40
0.000000000000135
 40
214.0008192189742
 40
214.0008192189742
 40
323.6224113425628
 40
323.6224113425628
 40
340.0489473900485
 40
340.0489473900485
 40
340.0489473900485
 40
340.0489473900485
 10
287.4999999999999
 20
-181.8225524952727
 30
-0.0000000000000617
 10
239.9252130518952
 20
-150.5407190953335
 30
-39.54183325631998
 10
187.0363414388208
 20
-116.9478504495337
 30
-69.41224426086663
 10
102.7651224872457
 20
-64.20050818198247
 30
-97.6647983395699
 10
73.47527984277241
 20
-45.99548099340895
 30
-104.2991750479343
 10
39.32333777659176
 20
-24.83233681015873
 30
-108.3177111021934
 10
34.86343340687806
 20
-22.06987113653297
 30
-108.7709088450393
 10
30.39541091910066
 20
-19.30337437416159
 30
-109.1529246369067
  0
SPLINE
  5
121
330
1F
100
AcDbEntity
  8
0
100
AcDbSpline
 70
     0
 71
     3
 72
    12
 73
     8
 74
     0
 42
0.000000001
 43
0.0000000001
 40
0.0000000000001297
 40
0.0000000000001297
 40
0.0000000000001297
 40
0.0000000000001297
 40
214.0008192189742
 40
214.0008192189742
 40
323.6224113425628
 40
323.6224113425628
 40
340.2969092960701
 40
340.2969092960701
 40
340.2969092960701
 40
340.2969092960701
 10
286.2062886653973
 20
-195.2194714675828
 30
-0.0000000000000772
 10
238.4536109616412
 20
-161.7457686775162
 30
-39.48575179196752
 10
185.6625648086882
 20
-125.6762598669207
 30
-69.33786729820089
 10
101.7618702044096
 20
-68.94376072938083
 30
-97.60910646927927
 10
72.63615883629998
 20
-49.34720968406464
 30
-104.2578552988301
 10
38.63072417746307
 20
-26.51083160895631
 30
-108.3090162771837
 10
34.13206199440785
 20
-23.49061093173726
 30
-108.7714024809944
 10
29.62548528920537
 20
-20.46573280796403
 30
-109.1605913606149
  0
SPLINE
  5
122
330
1F
100
AcDbEntity
  8
0
100
AcDbSpline
 70
     0
 71
     3
 72
    12
 73
     8
 74
     0
 42
0.000000001
 43
0.0000000001
 40
0.0000000000001243
 40
0.0000000000001243
 40
0.0000000000001243
 40
0.0000000000001243
 40
214.0008192189742
 40
214.0008192189742
 40
323.6224113425628
 40
323.6224113425628
 40
340.4644962769225
 40
340.4644962769225
 40
340.4644962769225
 40
340.4644962769225
 10
282.2858570475559
 20
-208.3333962230718
 30
0.0000000000000142
 10
234.871632235366
 20
-172.7266672053671
 30
-39.42825633776344
 10
182.7017068614946
 20
-134.2321814268552
 30
-69.26161505871038
 10
99.96850129089785
 20
-73.58660534619514
 30
-97.55201043202703
 10
71.27785323613016
 20
-52.62189693127438
 30
-104.215493749078
 10
37.7544486820811
 20
-28.14768875993467
 30
-108.2974069114315
 10
33.2812024912742
 20
-24.88237762141627
 30
-108.7672555876663
 10
28.80034564128151
 20
-21.61178674586178
 30
-109.1625886801166
  0
SPLINE
  5
123
330
1F
100
AcDbEntity
  8
0
100
AcDbSpline
 70
     0
 71
     3
 72
    12
 73
     8
 74
     0
 42
0.000000001
 43
0.0000000001
 40
0.000000000000119
 40
0.000000000000119
 40
0.000000000000119
 40
0.000000000000119
 40
214.0008192189742
 40
214.0008192189742
 40
323.6224113425628
 40
323.6224113425628
 40
340.549518870873
 40
340.549518870873
 40
340.549518870873
 40
340.549518870873
 10
275.8007023753694
 20
-220.5661102116824
 30
-0.0000000000000904
 10
229.2303911212534
 20
-183.0046691341748
 30
-39.36967118745123
 10
178.1924045225412
 20
-142.2579872905632
 30
-69.18391763073038
 10
97.40349673416776
 20
-77.9559612700669
 30
-97.4938322687102
 10
69.41179321214786
 20
-55.70921482643053
 30
-104.1723293320985
 10
36.69846518333223
 20
-29.70880820012907
 30
-108.2828616859835
 10
32.31449488467668
 20
-26.22442596426466
 30
-108.7583454406931
 10
27.92330766816212
 20
-22.73416465733151
 30
-109.1587283223629
  0
SPLINE
  5
124
330
1F
100
AcDbEntity
  8
0
100
AcDbSpline
 70
     0
 71
     3
 72
    12
 73
     8
 74
     0
 42
0.000000001
 43
0.0000000001
 40
0.0000000000001137
 40
0.0000000000001137
 40
0.0000000000001137
 40
0.0000000000001137
 40
214.0008192189742
 40
214.0008192189742
 40
323.6224113425628
 40
323.6224113425628
 40
340.5508135062041
 40
340.5508135062041
 40
340.5508135062041
 40
340.5508135062041
 10
266.9781872133813
 20
-231.3396710217695
 30
-0.0000000000000414
 10
221.7130084087167
 20
-192.1168844197544
 30
-39.31032063477389
 10
172.2719424639397
 20
-149.4074864819104
 30
-69.10520510259582
 10
94.13353848268079
 20
-81.88350252289715
 30
-97.43489402022568
 10
67.0805219038554
 20
-58.50132680469042
 30
-104.1286009813121
 10
35.47658347443816
 20
-31.15975485830084
 30
-108.2653885922754
 10
31.24126212932914
 20
-27.49511312519869
 30
-108.7445883070004
 10
26.99919425206533
 20
-23.82403514860152
 30
-109.148850643455
  0
SPLINE
  5
125
330
1F
100
AcDbEntity
  8
0
100
AcDbSpline
 70
     0
 71
     3
 72
    12
 73
     8
 74
     0
 42
0.000000001
 43
0.0000000001
 40
0.0000000000001084
 40
0.0000000000001084
 40
0.0000000000001084
 40
0.0000000000001084
 40
214.0008192189742
 40
214.0008192189742
 40
323.6224113425628
 40
323.6224113425628
 40
340.4672479467264
 40
340.4672479467264
 40
340.4672479467264
 40
340.4672479467264
 10
256.2007720333909
 20
-240.1516640150191
 30
-0.0000000000000435
 10
212.6264411181215
 20
-199.6606391828786
 30
-39.25052897347488
 10
165.170179912449
 20
-155.3793925813474
 30
-69.02590756264199
 10
90.27060761739865
 20
-85.22265272684305
 30
-97.37551772747064
 10
64.35586783741307
 20
-60.90430255351225
 30
-104.0845476301395
 10
34.11224334713822
 20
-32.47042057894068
 30
-108.2449941600175
 10
30.07681338921699
 20
-28.67538727538248
 30
-108.7258861422311
 10
26.03516920122177
 20
-24.87342211122874
 30
-109.1327571278972
  0
SPLINE
  5
126
330
1F
100
AcDbEntity
  8
0
100
AcDbSpline
 70
     0
 71
     3
 72
    12
 73
     8
 74
     0
 42
0.000000001
 43
0.0000000001
 40
0.000000000000103
 40
0.000000000000103
 40
0.000000000000103
 40
0.000000000000103
 40
214.0008192189742
 40
214.0008192189742
 40
323.6224113425628
 40
323.6224113425628
 40
340.2982400579707
 40
340.2982400579707
 40
340.2982400579707
 40
340.2982400579707
 10
243.9733711752332
 20
-246.6237292158906
 30
-0.0000000000000973
 10
202.3753149475692
 20
-205.3322270607193
 30
-39.19062049729743
 10
157.1898595822655
 20
-159.9462995393494
 30
-68.94645509920402
 10
85.96208734062435
 20
-87.86277787537729
 30
-97.316025431342
 10
61.33236548452507
 20
-62.84730327933462
 30
-104.0404082120011
 10
32.63592769887271
 20
-33.61789470025617
 30
-108.2217015943252
 10
28.84053236338074
 20
-29.75034962839552
 30
-108.7021581441401
 10
25.03950092482018
 20
-25.87545715341196
 30
-109.1102505419199
  0
SPLINE
  5
127
330
1F
100
AcDbEntity
  8
0
100
AcDbSpline
 70
     0
 71
     3
 72
    12
 73
     8
 74
     0
 42
0.000000001
 43
0.0000000001
 40
0.0000000000000977
 40
0.0000000000000977
 40
0.0000000000000977
 40
0.0000000000000977
 40
214.0008192189742
 40
214.0008192189742
 40
323.6224113425628
 40
323.6224113425628
 40
340.0450451817927
 40
340.0450451817927
 40
340.0450451817927
 40
340.0450451817927
 10
230.8742906773652
 20
-250.5332466833001
 30
-0.0000000000000188
 10
191.4227556867787
 20
-208.9523068043865
 30
-39.1309194999847
 10
148.6773326721972
 20
-162.9737914998115
 30
-68.86727780061698
 10
81.3764495293697
 20
-89.73878747985638
 30
-97.25673917273681
 10
58.11800978870683
 20
-64.28896195146262
 30
-103.9964216603176
 10
31.0819468826835
 20
-34.58854187028582
 30
-108.1955951936408
 10
27.55362345654329
 20
-30.71024835947532
 30
-108.6734188800826
 10
24.0202703128211
 20
-26.82428768790575
 30
-109.0812358866264
  0
SPLINE
  5
128
330
1F
100
AcDbEntity
  8
0
100
AcDbSpline
 70
     0
 71
     3
 72
    12
 73
     8
 74
     0
 42
0.000000001
 43
0.0000000001
 40
0.0000000000000924
 40
0.0000000000000924
 40
0.0000000000000924
 40
0.0000000000000924
 40
214.0008192189742
 40
214.0008192189742
 40
323.6224113425628
 40
323.6224113425628
 40
339.7091062823025
 40
339.7091062823025
 40
339.7091062823025
 40
339.7091062823025
 10
217.4999999767252
 20
-251.8225525177357
 30
-0.0000000000000249
 10
180.2460397409005
 20
-210.473260400506
 30
-39.0717502752801
 10
139.989088213435
 20
-164.4259430360883
 30
-68.78880575521612
 10
76.6862355680045
 20
-90.83382522099947
 30
-97.19798099255215
 10
54.82280965885639
 20
-65.21912225452344
 30
-103.9528269085095
 10
29.48436037643602
 20
-35.37894968409089
 30
-108.1667679125005
 10
26.23683136300138
 20
-31.5515871306505
 30
-108.6396887770247
 10
22.98489009225564
 20
-27.71634680083689
 30
-109.0456094275699
  0
SPLINE
  5
129
330
1F
100
AcDbEntity
  8
0
100
AcDbSpline
 70
     0
 71
     3
 72
    12
 73
     8
 74
     0
 42
0.000000001
 43
0.0000000001
 40
0.0000000000000808
 40
0.0000000000000808
 40
0.0000000000000808
 40
0.0000000000000808
 40
214.0008192189742
 40
214.0008192189742
 40
323.6224113425628
 40
323.6224113425628
 40
338.1742640949569
 40
338.1742640949569
 40
338.1742640949569
 40
338.1742640949569
 10
162.6530907676974
 20
-251.8225525177357
 30
-0.0000000000000309
 10
134.4066953349829
 20
-212.3755015963156
 30
-38.8391881124831
 10
104.300666049645
 20
-167.0495199712803
 30
-68.48037466306234
 10
57.27157179509796
 20
-93.55356789255212
 30
-96.96703442304758
 10
41.08076700071023
 20
-67.79884826527784
 30
-103.7814795599899
 10
22.57760248375589
 20
-38.04856000137134
 30
-108.0447564080431
 10
20.40668445734262
 20
-34.55315983947644
 30
-108.4906091651031
 10
18.23350186120534
 20
-31.04960672330884
 30
-108.8821974827557
  0
SPLINE
  5
12A
330
1F
100
AcDbEntity
  8
0
100
AcDbSpline
 70
     0
 71
     3
 72
    12
 73
     8
 74
     0
 42
0.000000001
 43
0.0000000001
 40
0.0000000000000693
 40
0.0000000000000693
 40
0.0000000000000693
 40
0.0000000000000693
 40
214.0008192189742
 40
214.0008192189742
 40
323.6224113425628
 40
323.6224113425628
 40
336.845917855277
 40
336.845917855277
 40
336.845917855277
 40
336.845917855277
 10
108.3332888254929
 20
-251.8225525177355
 30
-0.0000000000000234
 10
89.146232286895
 20
-213.9297148789373
 30
-38.64445555077049
 10
69.05691570220878
 20
-169.1691324409514
 30
-68.222114351219
 10
37.94847556469631
 20
-95.69532926429962
 30
-96.77365465499986
 10
27.28463114284046
 20
-69.80359548272091
 30
-103.6380043371996
 10
15.25613889280818
 20
-40.12205354532824
 30
-107.939163825741
 10
13.96033044431743
 20
-36.91836645740702
 30
-108.3581219189297
 10
12.66360473644401
 20
-33.70674246333441
 30
-108.7326604552964
  0
SPLINE
  5
12B
330
1F
100
AcDbEntity
  8
0
100
AcDbSpline
 70
     0
 71
     3
 72
    12
 73
     8
 74
     0
 42
0.000000001
 43
0.0000000001
 40
0.0000000000000577
 40
0.0000000000000577
 40
0.0000000000000577
 40
0.0000000000000577
 40
214.0008192189742
 40
214.0008192189742
 40
323.6224113425628
 40
323.6224113425628
 40
335.953033471818
 40
335.953033471818
 40
335.953033471818
 40
335.953033471818
 10
54.21886683141254
 20
-251.8225525177355
 30
-0.0000000000000122
 10
44.37095954690189
 20
-214.9747713418496
 30
-38.51066610375803
 10
34.27854822297188
 20
-170.5798885613128
 30
-68.04467867224002
 10
18.81892454351603
 20
-97.08689392799698
 30
-96.64079463404103
 10
13.54798951182856
 20
-71.08937031254621
 30
-103.5394308344003
 10
7.66310154061147
 20
-41.44042237266972
 30
-107.8662714589065
 10
7.067839373141242
 20
-38.43433920196055
 30
-108.2656844260366
 10
6.472359492798162
 20
-35.42062579194953
 30
-108.6267071086643
  0
SPLINE
  5
12C
330
1F
100
AcDbEntity
  8
0
100
AcDbSpline
210
-1.0
220
3.786368877151424E-16
230
5.899308834508570E-16
 70
     8
 71
     3
 72
     8
 73
     4
 74
     0
 42
0.000000001
 43
0.0000000001
 40
0.0000000000000462
 40
0.0000000000000462
 40
0.0000000000000462
 40
0.0000000000000462
 40
49.01575399432955
 40
49.01575399432955
 40
49.01575399432955
 40
49.01575399432955
 10
0.0000000000000089
 20
-251.8225525177356
 30
-0.0000000000000031
 10
0.0000000000000068
 20
-243.4701264825431
 30
-8.809273026024684
 10
0.0000000000000053
 20
-234.7085200746241
 30
-17.14937546235287
 10
0.0000000000000041
 20
-225.5792530919121
 30
-25.00043258627398
  0
SPLINE
  5
12D
330
1F
100
AcDbEntity
  8
0
100
AcDbSpline
210
-1.0
220
4.111071080630664E-17
230
1.378829029112759E-16
 70
     8
 71
     3
 72
    12
 73
     8
 74
     0
 42
0.000000001
 43
0.0000000001
 40
56.91995950093646
 40
56.91995950093646
 40
56.91995950093646
 40
56.91995950093646
 40
214.0008192189742
 40
214.0008192189742
 40
323.6224113425628
 40
323.6224113425628
 40
335.6477190796993
 40
335.6477190796993
 40
335.6477190796993
 40
335.6477190796993
 10
0.0000000000000035
 20
-221.1342300562429
 30
-28.76034579340783
 10
0.0
 20
-191.5011115432923
 30
-53.41352113677982
 10
0.0
 20
-158.160840589871
 30
-73.01123116098621
 10
0.0
 20
-97.57941284194057
 30
-96.59140730580319
 10
0.0000000000000004
 20
-71.53895342526329
 30
-103.5027886458535
 10
0.0000000000000001
 20
-41.89231791179592
 30
-107.8399111076417
 10
0.0000000000000001
 20
-38.95349472777346
 30
-108.2325166012362
 10
0.0000000000000001
 20
-36.00715609119223
 30
-108.5886913069762
  0
SPLINE
  5
12E
330
1F
100
AcDbEntity
  8
0
100
AcDbSpline
 70
     0
 71
     3
 72
    12
 73
     8
 74
     0
 42
0.000000001
 43
0.0000000001
 40
0.0000000000000346
 40
0.0000000000000346
 40
0.0000000000000346
 40
0.0000000000000346
 40
214.0008192189742
 40
214.0008192189742
 40
323.6224113425628
 40
323.6224113425628
 40
335.952884178433
 40
335.952884178433
 40
335.952884178433
 40
335.952884178433
 10
-54.2188668314123
 20
-251.8225525177356
 30
0.0000000000000211
 10
-44.36788098541199
 20
-214.9747713418495
 30
-38.5057983812401
 10
-34.27534263704247
 20
-170.5798885613128
 30
-68.03742776665014
 10
-18.81699606510625
 20
-97.08689392799697
 30
-96.63493767633963
 10
-13.54674856081285
 20
-71.08937031254621
 30
-103.5349132680217
 10
-7.662620185167958
 20
-41.44045866878641
 30
-107.8643260845755
 10
-7.067441159590597
 20
-38.43441199444742
 30
-108.2640076520061
 10
-6.472043905564581
 20
-35.42073525782835
 30
-108.6253123927368
  0
SPLINE
  5
12F
330
1F
100
AcDbEntity
  8
0
100
AcDbSpline
 70
     0
 71
     3
 72
    12
 73
     8
 74
     0
 42
0.000000001
 43
0.0000000001
 40
0.0000000000000231
 40
0.0000000000000231
 40
0.0000000000000231
 40
0.0000000000000231
 40
214.0008192189742
 40
214.0008192189742
 40
323.6224113425628
 40
323.6224113425628
 40
336.8453201547406
 40
336.8453201547406
 40
336.8453201547406
 40
336.8453201547406
 10
-108.3332888254929
 20
-251.8225525177359
 30
-0.0000000000000491
 10
-89.13487188958547
 20
-213.9297148789375
 30
-38.62649285553739
 10
-69.0450865638635
 20
-169.1691324409516
 30
-68.19535731919913
 10
-37.94135916276306
 20
-95.69532926429972
 30
-96.75204151953525
 10
-27.28005182986372
 20
-69.80359548272097
 30
-103.6213337756062
 10
-15.25441486955039
 20
-40.12219796031704
 30
-107.9320532976965
 10
-13.95896547763257
 20
-36.91865606975342
 30
-108.3520782163517
 10
-12.66259657925547
 20
-33.70717795807283
 30
-108.7277408083188
  0
SPLINE
  5
130
330
1F
100
AcDbEntity
  8
0
100
AcDbSpline
 70
     0
 71
     3
 72
    12
 73
     8
 74
     0
 42
0.000000001
 43
0.0000000001
 40
0.0000000000000115
 40
0.0000000000000115
 40
0.0000000000000115
 40
0.0000000000000115
 40
214.0008192189742
 40
214.0008192189742
 40
323.6224113425628
 40
323.6224113425628
 40
338.1729599927322
 40
338.1729599927322
 40
338.1729599927322
 40
338.1729599927322
 10
-162.6530907676975
 20
-251.8225525177356
 30
0.0000000000000512
 10
-134.3832806004972
 20
-212.3755015963155
 30
-38.80216548659521
 10
-104.2762852004545
 20
-167.0495199712802
 30
-68.42522616928206
 10
-57.25690429208558
 20
-93.55356789255207
 30
-96.92248793276957
 10
-41.07132865145576
 20
-67.79884826527778
 30
-103.7471201302271
 10
-22.5741851264984
 20
-38.04887244673473
 30
-108.0303127874547
 10
-20.40414314930897
 20
-34.55378633820214
 30
-108.4786003805457
 10
-18.23183074804652
 20
-31.05054866325382
 30
-108.8727662511217
  0
SPLINE
  5
131
330
1F
100
AcDbEntity
  8
0
100
AcDbSpline
 70
     0
 71
     3
 72
    12
 73
     8
 74
     0
 42
0.000000001
 43
0.0000000001
 40
0.0
 40
0.0
 40
0.0
 40
0.0
 40
214.0008192189742
 40
214.0008192189742
 40
323.6224113425628
 40
323.6224113425628
 40
339.7064319267389
 40
339.7064319267389
 40
339.7064319267389
 40
339.7064319267389
 10
-217.4999999767252
 20
-251.8225525177357
 30
0.0000000000000232
 10
-180.2082289408562
 20
-210.4732604005059
 30
-39.0119650530558
 10
-139.9497173030276
 20
-164.4259430360884
 30
-68.69975034985467
 10
-76.66255005391561
 20
-90.83382522099944
 30
-97.12604601342208
 10
-54.80756833563635
 20
-65.21912225452343
 30
-103.8973422935043
 10
-29.47918338149205
 20
-35.37958451281535
 30
-108.1438246468717
 10
-26.23341088392544
 20
-31.55285970111063
 30
-108.62111149879
 10
-22.98321420870879
 20
-27.71825958519369
 30
-109.0316832516968
  0
SPLINE
  5
132
330
1F
100
AcDbEntity
  8
0
100
AcDbSpline
 70
     0
 71
     3
 72
    12
 73
     8
 74
     0
 42
0.000000001
 43
0.0000000001
 40
0.0000000000000044
 40
0.0000000000000044
 40
0.0000000000000044
 40
0.0000000000000044
 40
214.0008192189742
 40
214.0008192189742
 40
323.6224113425628
 40
323.6224113425628
 40
340.0425940379835
 40
340.0425940379835
 40
340.0425940379835
 40
340.0425940379835
 10
-230.8742906773652
 20
-250.5332466833
 30
0.0000000000000431
 10
-191.3812821927362
 20
-208.9523068043864
 30
-39.06534294368742
 10
-148.634147941477
 20
-162.9737914998115
 30
-68.76959568811513
 10
-81.35046962346159
 20
-89.73878747985633
 30
-97.17783592485785
 10
-58.1012920539055
 20
-64.2889619514626
 30
-103.9355623067156
 10
-31.07623082386682
 20
-34.58911944534136
 30
-108.1705418246324
 10
-27.54979623716351
 20
-30.71140606093282
 30
-108.6532752841338
 10
-24.01831789262742
 20
-26.82602767292849
 30
-109.0663235183967
  0
SPLINE
  5
133
330
1F
100
AcDbEntity
  8
0
100
AcDbSpline
 70
     0
 71
     3
 72
    12
 73
     8
 74
     0
 42
0.000000001
 43
0.0000000001
 40
0.0000000000000089
 40
0.0000000000000089
 40
0.0000000000000089
 40
0.0000000000000089
 40
214.0008192189742
 40
214.0008192189742
 40
323.6224113425628
 40
323.6224113425628
 40
340.2955483385105
 40
340.2955483385105
 40
340.2955483385105
 40
340.2955483385105
 10
-243.9733711752333
 20
-246.623729215891
 30
0.0000000000000568
 10
-202.3301458417347
 20
-205.3322270607195
 30
-39.1192005583691
 10
-157.1428267552185
 20
-159.9462995393495
 30
-68.84006874860576
 10
-85.93379242246938
 20
-87.86277787537735
 30
-97.23009128867045
 10
-61.31415806916284
 20
-62.84730327933466
 30
-103.9741258153201
 10
-32.62976417475874
 20
-33.61851765334073
 30
-108.1944940383788
 10
-28.83648796869359
 20
-29.7515981833823
 30
-108.680386708064
 10
-25.03755980710796
 20
-25.87733354356927
 30
-109.0942761757358
  0
SPLINE
  5
134
330
1F
100
AcDbEntity
  8
0
100
AcDbSpline
 70
     0
 71
     3
 72
    12
 73
     8
 74
     0
 42
0.000000001
 43
0.0000000001
 40
0.0000000000000133
 40
0.0000000000000133
 40
0.0000000000000133
 40
0.0000000000000133
 40
214.0008192189742
 40
214.0008192189742
 40
323.6224113425628
 40
323.6224113425628
 40
340.4642483185223
 40
340.4642483185223
 40
340.4642483185223
 40
340.4642483185223
 10
-256.2007720333906
 20
-240.1516640150192
 30
0.0000000000000579
 10
-212.5775635571358
 20
-199.6606391828786
 30
-39.17324534440905
 10
-165.1192856157866
 20
-155.3793925813474
 30
-68.91078672411038
 10
-90.23998964163508
 20
-85.22265272684302
 30
-97.28252825553919
 10
-64.33616556440332
 20
-60.90430255351225
 30
-104.012823343679
 10
-34.10564584716701
 20
-32.47109499566282
 30
-108.2156071792061
 10
-30.07258126021325
 20
-28.67673886900495
 30
-108.7024443269339
 10
-26.03328497494833
 20
-24.87545320452506
 30
-109.1156596422761
  0
SPLINE
  5
135
330
1F
100
AcDbEntity
  8
0
100
AcDbSpline
 70
     0
 71
     3
 72
    12
 73
     8
 74
     0
 42
0.000000001
 43
0.0000000001
 40
0.0000000000000178
 40
0.0000000000000178
 40
0.0000000000000178
 40
0.0000000000000178
 40
214.0008192189742
 40
214.0008192189742
 40
323.6224113425628
 40
323.6224113425628
 40
340.5478422657899
 40
340.5478422657899
 40
340.5478422657899
 40
340.5478422657899
 10
-266.9781872133816
 20
-231.3396710217696
 30
-0.0000000000000513
 10
-221.6604296236563
 20
-192.1168844197544
 30
-39.2271847491155
 10
-172.2171942270994
 20
-149.4074864819105
 30
-68.9813668074128
 10
-94.10060197901336
 20
-81.8835025228972
 30
-97.33486297614326
 10
-67.05932768800477
 20
-58.50132680469046
 30
-104.0514454161531
 10
-35.46946555132816
 20
-31.16039680525639
 30
-108.2338155012271
 10
-31.23666780475211
 20
-27.49639954663859
 30
-108.7194516672675
 10
-26.99710443080954
 20
-23.82596816953031
 30
-109.1305818057919
  0
SPLINE
  5
136
330
1F
100
AcDbEntity
  8
0
100
AcDbSpline
 70
     0
 71
     3
 72
    12
 73
     8
 74
     0
 42
0.000000001
 43
0.0000000001
 40
0.0000000000000222
 40
0.0000000000000222
 40
0.0000000000000222
 40
0.0000000000000222
 40
214.0008192189742
 40
214.0008192189742
 40
323.6224113425628
 40
323.6224113425628
 40
340.5464425988465
 40
340.5464425988465
 40
340.5464425988465
 40
340.5464425988465
 10
-275.8007023753693
 20
-220.5661102116826
 30
0.0000000000000233
 10
-229.1741384176282
 20
-183.0046691341751
 30
-39.28072621979639
 10
-178.1338307776851
 20
-142.2579872905634
 30
-69.05142619129666
 10
-97.36825880736669
 20
-77.95596127006698
 30
-97.38681160116184
 10
-69.38911806015568
 20
-55.70921482643057
 30
-104.0897825571035
 10
-36.69085109841063
 20
-29.70944024394938
 30
-108.2490858896188
 10
-32.3095820363118
 20
-26.22569244239688
 30
-108.7314583832655
 10
-27.92107571513684
 20
-22.73606757959726
 30
-109.1391905707569
  0
SPLINE
  5
137
330
1F
100
AcDbEntity
  8
0
100
AcDbSpline
 70
     0
 71
     3
 72
    12
 73
     8
 74
     0
 42
0.000000001
 43
0.0000000001
 40
0.0000000000000266
 40
0.0000000000000266
 40
0.0000000000000266
 40
0.0000000000000266
 40
214.0008192189742
 40
214.0008192189742
 40
323.6224113425628
 40
323.6224113425628
 40
340.4606984357168
 40
340.4606984357168
 40
340.4606984357168
 40
340.4606984357168
 10
-282.285857047556
 20
-208.3333962230714
 30
-0.0000000000000841
 10
-234.8117529931224
 20
-172.7266672053668
 30
-39.33357720376016
 10
-182.6393569435115
 20
-134.232181426855
 30
-69.12058206854593
 10
-99.93099162080003
 20
-73.58660534619501
 30
-97.43809028127423
 10
-71.25371624658912
 20
-52.62189693127431
 30
-104.1276252908913
 10
-37.74649368628005
 20
-28.14842374691614
 30
-108.2614021654613
 10
-33.27627361757862
 20
-24.88385025746005
 30
-108.7385321465178
 10
-28.79842217338706
 20
-21.61399927126838
 30
-109.1416366722443
  0
SPLINE
  5
138
330
1F
100
AcDbEntity
  8
0
100
AcDbSpline
 70
     0
 71
     3
 72
    12
 73
     8
 74
     0
 42
0.000000001
 43
0.0000000001
 40
0.0000000000000311
 40
0.0000000000000311
 40
0.0000000000000311
 40
0.0000000000000311
 40
214.0008192189742
 40
214.0008192189742
 40
323.6224113425628
 40
323.6224113425628
 40
340.2924239257413
 40
340.2924239257413
 40
340.2924239257413
 40
340.2924239257413
 10
-286.2062886653969
 20
-195.219471467583
 30
0.0000000000000758
 10
-238.3901726351589
 20
-161.7457686775164
 30
-39.38544514831465
 10
-185.5965089551913
 20
-125.6762598669208
 30
-69.18845163194419
 10
-101.7221310459176
 20
-68.94376072938088
 30
-97.48841516715956
 10
-72.61058719969559
 20
-49.34720968406468
 30
-104.1647641418774
 10
-38.62241607258122
 20
-26.51164263653898
 30
-108.2707841991001
 10
-34.12708040607796
 20
-23.4922357848647
 30
-108.7407914909322
 10
-29.62380954888089
 20
-20.46817384570974
 30
-109.1381148135985
  0
SPLINE
  5
139
330
1F
100
AcDbEntity
  8
0
100
AcDbSpline
 70
     0
 71
     3
 72
    12
 73
     8
 74
     0
 42
0.000000001
 43
0.0000000001
 40
0.0000000000000355
 40
0.0000000000000355
 40
0.0000000000000355
 40
0.0000000000000355
 40
214.0008192189742
 40
214.0008192189742
 40
323.6224113425628
 40
323.6224113425628
 40
340.0436365606122
 40
340.0436365606122
 40
340.0436365606122
 40
340.0436365606122
 10
-287.5
 20
-181.8225524952729
 30
0.0000000000000043
 10
-239.8583031699902
 20
-150.5407190953337
 30
-39.43603750076839
 10
-186.9666707901499
 20
-116.9478504495338
 30
-69.25465207427546
 10
-102.7232086703285
 20
-64.2005081819825
 30
-97.53750240949715
 10
-73.44830884148351
 20
-45.99548099340897
 30
-104.2009896344229
 10
-39.31470681784188
 20
-24.83322848424166
 30
-108.2772549908089
 10
-34.85844381481724
 20
-22.0716573902039
 30
-108.7383489273479
 10
-30.39404266941078
 20
-19.30605766395745
 30
-109.1287919421639
  0
SPLINE
  5
13A
330
1F
100
AcDbEntity
  8
0
100
AcDbSpline
 70
     0
 71
     3
 72
    12
 73
     8
 74
     0
 42
0.000000001
 43
0.0000000001
 40
0.0000000000000204
 40
0.0000000000000204
 40
0.0000000000000204
 40
0.0000000000000204
 40
214.0008192189742
 40
214.0008192189742
 40
323.6224113425628
 40
323.6224113425628
 40
339.1121365753208
 40
339.1121365753208
 40
339.1121365753208
 40
339.1121365753208
 10
-287.5000000000001
 20
-135.8029920330821
 30
0.0000000000000158
 10
-241.230189628822
 20
-112.0944003582137
 30
-39.59739343109011
 10
-188.8417076064545
 20
-86.98300266673638
 30
-69.46578742264339
 10
-104.6545103861271
 20
-47.82675063074203
 30
-97.6940580403419
 10
-75.2764062696089
 20
-34.35821340267556
 30
-104.3165248441446
 10
-41.1995277829939
 20
-18.8478924443405
 30
-108.2940755171302
 10
-36.97097329605093
 20
-16.92517199059878
 30
-108.7238850401798
 10
-32.73391484573683
 20
-15.00026153435103
 30
-109.0904947248586
  0
SPLINE
  5
13B
330
1F
100
AcDbEntity
  8
0
100
AcDbSpline
 70
     0
 71
     3
 72
    12
 73
     8
 74
     0
 42
0.000000001
 43
0.0000000001
 40
0.0000000000000053
 40
0.0000000000000053
 40
0.0000000000000053
 40
0.0000000000000053
 40
214.0008192189742
 40
214.0008192189742
 40
323.6224113425628
 40
323.6224113425628
 40
338.3793820442244
 40
338.3793820442244
 40
338.3793820442244
 40
338.3793820442244
 10
-287.5000000000001
 20
-90.20434762171769
 30
0.0000000000000075
 10
-242.3181244962138
 20
-74.15929166751087
 30
-39.72772939208713
 10
-190.3158519420058
 20
-57.44505584333897
 30
-69.6363329270764
 10
-106.143536707208
 20
-31.60533009719295
 30
-97.82051653836521
 10
-76.6717150819795
 20
-22.75476044821377
 30
-104.4098489169446
 10
-42.62565149500024
 20
-12.6469949641476
 30
-108.3090246686662
 10
-38.57654341774308
 20
-11.44670271313423
 30
-108.7145106561288
 10
-34.51878023861156
 20
-10.24545744190359
 30
-109.0623863547628
  0
SPLINE
  5
13C
330
1F
100
AcDbEntity
  8
0
100
AcDbSpline
 70
     0
 71
     3
 72
    12
 73
     8
 74
     0
 42
0.000000001
 43
0.0000000001
 40
-0.0000000000000098
 40
-0.0000000000000098
 40
-0.0000000000000098
 40
-0.0000000000000098
 40
214.0008192189742
 40
214.0008192189742
 40
323.6224113425628
 40
323.6224113425628
 40
337.9236816511621
 40
337.9236816511621
 40
337.9236816511621
 40
337.9236816511621
 10
-287.4999999999998
 20
-44.95796960232674
 30
0.0000000000000311
 10
-243.0338283461969
 20
-36.7783890261689
 30
-39.81486399044746
 10
-191.2781292473093
 20
-28.42008585020732
 30
-69.75034915036008
 10
-107.0981872123282
 20
-15.62971715356789
 30
-97.90505890372798
 10
-77.55775826690927
 20
-11.27107653422635
 30
-104.4722396457855
 10
-43.51728896493742
 20
-6.326308755064071
 30
-108.3204419301044
 10
-39.5791328909512
 20
-5.755396293740391
 30
-108.7107069494471
 10
-35.63225673706083
 20
-5.184244026752916
 30
-109.0467074082951
  0
SPLINE
  5
13D
330
1F
100
AcDbEntity
  8
0
100
AcDbSpline
 70
     0
 71
     3
 72
    48
 73
    44
 74
     0
 42
0.000000001
 43
0.0000000001
 40
0.0
 40
0.0
 40
0.0
 40
0.0
 40
3.208623492826673
 40
6.417246985653347
 40
9.62587047848002
 40
12.8344939713067
 40
12.8344939713067
 40
27.72919499157017
 40
42.62389601183365
 40
57.51859703209714
 40
72.41329805236062
 40
87.3079990726241
 40
102.2027000928876
 40
117.097401113151
 40
131.9921021334146
 40
131.9921021334146
 40
194.4281467488913
 40
256.864191364368
 40
319.3002359798447
 40
381.7362805953213
 40
381.7362805953213
 40
444.172325210798
 40
506.6083698262747
 40
569.0444144417514
 40
631.4804590572281
 40
631.4804590572281
 40
646.3751600774916
 40
661.2698610977551
 40
676.1645621180186
 40
691.0592631382821
 40
705.9539641585455
 40
720.848665178809
 40
735.7433661990725
 40
750.638067219336
 40
750.638067219336
 40
753.8466907121627
 40
757.0553142049894
 40
760.263937697816
 40
763.4725611906426
 40
763.4725611906426
 40
805.5853660014112
 40
847.6981708121796
 40
848.8939787580659
 40
848.8939787580659
 40
848.8939787580659
 40
848.8939787580659
 10
-135.9510410687725
 20
-0.0000000000000054
 30
-88.4025747603233
 10
-135.9510410687725
 20
0.5006194978004649
 30
-88.4025747603233
 10
-135.9492778541904
 20
1.387845195427873
 30
-88.40214664227884
 10
-135.9405237593062
 20
2.643270298254974
 30
-88.40024170194653
 10
-135.9251307261679
 20
3.891242672403588
 30
-88.39709558921702
 10
-135.9110147531393
 20
4.75388244186562
 30
-88.39418512637785
 10
-135.8671197829251
 20
7.332677956303042
 30
-88.38484806050498
 10
-135.4005192979673
 20
11.65316682087035
 30
-88.36087857588218
 10
-133.5128016280424
 20
18.1167840879905
 30
-88.30126868956097
 10
-130.4943206502666
 20
24.31325960692605
 30
-88.22016292227588
 10
-126.4604448218147
 20
30.01049804463301
 30
-88.11972105244965
 10
-121.5787987828839
 20
35.0115828173424
 30
-88.00210285850511
 10
-116.0546670489587
 20
39.16837694240867
 30
-87.86946811886544
 10
-110.1147022217856
 20
42.38966823262859
 30
-87.72397661195305
 10
-106.030487392285
 20
43.891036555594
 30
-87.6198509481119
 10
-95.45390292109644
 20
46.96740027605328
 30
-87.34216232036712
 10
-78.11226647468254
 20
52.13648826175154
 30
-86.84375279145203
 10
-51.71614253855823
 20
59.21272675185452
 30
-86.105209084748
 10
-25.4293025736427
 20
64.37615888076523
 30
-85.53481757360896
 10
-8.34140647461778
 20
65.76463830075116
 30
-85.37271243582336
 10
8.341406474617783
 20
65.76463830075116
 30
-85.37271243582336
 10
25.43320414143281
 20
64.3761588807652
 30
-85.54527616774934
 10
51.73377236430517
 20
59.21272675185456
 30
-86.152467828455
 10
78.14767166755888
 20
52.13648826175152
 30
-86.93866041901799
 10
95.5013039001081
 20
46.9674002760533
 30
-87.46922601065732
 10
106.0845718177346
 20
43.89103655559401
 30
-87.76483037318151
 10
110.1712927574156
 20
42.38966823262857
 30
-87.87567394906789
 10
116.1147592933255
 20
39.1683769424087
 30
-88.03055218265892
 10
121.6420832976189
 20
35.01158281734234
 30
-88.17174416440574
 10
126.5265601867214
 20
30.01049804463305
 30
-88.29695077270127
 10
130.5628534633146
 20
24.3132596069261
 30
-88.40387288593978
 10
133.5832865053715
 20
18.11678408799044
 30
-88.49021138251425
 10
135.4724388738853
 20
11.6531668208704
 30
-88.55366714081892
 10
135.9396162595535
 20
7.332677956303046
 30
-88.57918307310429
 10
135.983735955498
 20
4.753882441865617
 30
-88.58912254173725
 10
135.9979219779292
 20
3.891242672403599
 30
-88.59222077993016
 10
136.0133907321227
 20
2.643270298254955
 30
-88.59556987152028
 10
136.0221906753616
 20
1.387845195427894
 30
-88.59759771355736
 10
136.0239641939451
 20
0.5006194978004643
 30
-88.59805345264418
 10
136.0239641939451
 20
-6.570571848790948
 30
-88.59805345264417
 10
135.7878138603314
 20
-19.89009806683183
 30
-88.57044450562408
 10
135.1270142023526
 20
-33.69138391901122
 30
-88.49653850076221
 10
134.6985552363334
 20
-40.74772266221326
 30
-88.44973304840758
 10
134.6866540652761
 20
-40.94260219034632
 30
-88.44843362811253
  0
SPLINE
  5
13E
330
1F
100
AcDbEntity
  8
0
100
AcDbSpline
 70
     0
 71
     3
 72
    24
 73
    20
 74
     0
 42
0.000000001
 43
0.0000000001
 40
0.0
 40
0.0
 40
0.0
 40
0.0
 40
3.208623492826673
 40
6.417246985653347
 40
9.62587047848002
 40
12.8344939713067
 40
12.8344939713067
 40
27.72919499157017
 40
42.62389601183365
 40
57.51859703209714
 40
72.41329805236062
 40
87.3079990726241
 40
102.2027000928876
 40
117.097401113151
 40
131.9921021334146
 40
131.9921021334146
 40
194.4281467488913
 40
256.864191364368
 40
262.1578870911527
 40
262.1578870911527
 40
262.1578870911527
 40
262.1578870911527
 10
-47.71432573748598
 20
-0.0000000000000066
 30
-107.8872506834583
 10
-47.71432573748598
 20
0.173788028959901
 30
-107.8872506834583
 10
-47.71315794049475
 20
0.5067785537897486
 30
-107.8875492138894
 10
-47.70658779238301
 20
1.022010123902564
 30
-107.8888775453295
 10
-47.69432262764591
 20
1.551619032484989
 30
-107.8910713570633
 10
-47.68316380577497
 20
1.901782560468033
 30
-107.8931008480816
 10
-47.64946798004651
 20
2.893021368591953
 30
-107.8996116652174
 10
-47.48541022223073
 20
4.544844720578872
 30
-107.9163257950461
 10
-46.91410982833882
 20
7.028115594544168
 30
-107.9578922865548
 10
-46.03182021127905
 20
9.4598979227699
 30
-108.014448042575
 10
-44.86440333169392
 20
11.7868150336421
 30
-108.0844870308523
 10
-43.44923402642581
 20
13.96324069887895
 30
-108.1665032191324
 10
-41.83088522703503
 20
15.95404903965937
 30
-108.2589905751611
 10
-40.05863759759387
 20
17.73665562364238
 30
-108.3604430666838
 10
-38.80679394024889
 20
18.77944229203545
 30
-108.4330507965256
 10
-35.50511333783648
 20
21.29888924163545
 30
-108.6266854886814
 10
-29.76666745842638
 20
25.28781483680917
 30
-108.9742307824259
 10
-23.13201260653457
 20
28.78237985783682
 30
-109.3321141222108
 10
-19.57180999473621
 20
30.2866939575457
 30
-109.4953365061189
 10
-19.29293498297625
 20
30.40229615076721
 30
-109.5079420697859
  0
SPLINE
  5
13F
330
1F
100
AcDbEntity
  8
0
100
AcDbSpline
 70
     0
 71
     3
 72
    28
 73
    24
 74
     0
 42
0.000000001
 43
0.0000000001
 40
501.2403654459503
 40
501.2403654459503
 40
501.2403654459503
 40
501.2403654459503
 40
506.6083698262747
 40
569.0444144417514
 40
631.4804590572281
 40
631.4804590572281
 40
646.3751600774916
 40
661.2698610977551
 40
676.1645621180186
 40
691.0592631382821
 40
705.9539641585455
 40
720.848665178809
 40
735.7433661990725
 40
750.638067219336
 40
750.638067219336
 40
753.8466907121627
 40
757.0553142049894
 40
760.263937697816
 40
763.4725611906426
 40
763.4725611906426
 40
805.5853660014112
 40
847.6981708121796
 40
848.8939787580658
 40
848.8939787580658
 40
848.8939787580658
 40
848.8939787580658
 10
19.28524790157495
 20
30.4071631764611
 30
-109.5242857609507
 10
19.56816044572212
 20
30.28999445017564
 30
-109.5119186604764
 10
23.13373619566694
 20
28.78437482465165
 30
-109.3537984400579
 10
29.77513433782676
 20
25.28781483680919
 30
-109.007230844907
 10
35.5164489171723
 20
21.29888924163545
 30
-108.670866444693
 10
38.81972781436496
 20
18.77944229203545
 30
-108.4834611819548
 10
40.07217078867272
 20
17.73665562364236
 30
-108.4131893182907
 10
41.84525582480937
 20
15.95404903965937
 30
-108.315000658926
 10
43.46436803109122
 20
13.96324069887894
 30
-108.2254887173234
 10
44.88021431239189
 20
11.78681503364211
 30
-108.1461110751132
 10
46.04820930609547
 20
9.459897922769906
 30
-108.078325313926
 10
46.93096574430507
 20
7.02811559454415
 30
-108.0235890153923
 10
47.50260923532319
 20
4.544844720578879
 30
-107.9833597611426
 10
47.66680495450407
 20
2.893021368591953
 30
-107.9671833422524
 10
47.70055452166147
 20
1.901782560468032
 30
-107.9608819848748
 10
47.71173009530793
 20
1.551619032484989
 30
-107.9589177846932
 10
47.7240133681526
 20
1.022010123902559
 30
-107.9567945501644
 10
47.73059448054559
 20
0.5067785537897536
 30
-107.9555089525281
 10
47.73176474165943
 20
0.1737880289599006
 30
-107.9552200261314
 10
47.73176474165943
 20
-2.280947377714706
 30
-107.9552200261314
 10
47.54853398587873
 20
-6.888381514849627
 30
-107.9463775988664
 10
47.01471699907704
 20
-11.59602262371191
 30
-107.9227074287593
 10
46.66157162383175
 20
-13.97776702993695
 30
-107.9077168603847
 10
46.65175813112337
 20
-14.0435260253102
 30
-107.9073006898789
  0
SPLINE
  5
140
330
1F
100
AcDbEntity
  8
0
100
AcDbSpline
 70
     0
 71
     3
 72
    12
 73
     8
 74
     0
 42
0.000000001
 43
0.0000000001
 40
0.000000000000016
 40
0.000000000000016
 40
0.000000000000016
 40
0.000000000000016
 40
214.0008192189742
 40
214.0008192189742
 40
323.6224113425628
 40
323.6224113425628
 40
337.776146473031
 40
337.776146473031
 40
337.776146473031
 40
337.776146473031
 10
-287.4999999999998
 20
3.056040417817498
 30
-0.0000000000000468
 10
-243.2888786318397
 20
2.49611428631622
 30
-39.84427401655413
 10
-191.6188511132305
 20
1.935859309561615
 30
-69.78924276505796
 10
-107.4310843629346
 20
1.088118493399495
 30
-97.93625989830201
 10
-77.86416712538136
 20
0.798964106593049
 30
-104.4961350714666
 10
-43.81931923066242
 20
0.4720162992775426
 30
-108.3255955998889
 10
-39.91653307479498
 20
0.4346297476206626
 30
-108.7107135129881
 10
-36.00499693835967
 20
0.397243196043862
 30
-109.0426351345836
  0
SPLINE
  5
141
330
1F
100
AcDbEntity
  8
0
100
AcDbSpline
 70
     0
 71
     3
 72
    12
 73
     8
 74
     0
 42
0.000000001
 43
0.0000000001
 40
0.000000000000032
 40
0.000000000000032
 40
0.000000000000032
 40
0.000000000000032
 40
214.0008192189742
 40
214.0008192189742
 40
323.6224113425628
 40
323.6224113425628
 40
337.7770984175482
 40
337.7770984175482
 40
337.7770984175482
 40
337.7770984175482
 10
-287.5000000000002
 20
5.761830655983173
 30
0.0000000000000269
 10
-243.2819730315534
 20
4.723203403460783
 30
-39.83730135346447
 10
-191.6097216171601
 20
3.683268182277688
 30
-69.78134091453454
 10
-107.422389069158
 20
2.108654577591142
 30
-97.93743230782997
 10
-77.85627779797102
 20
1.567339614466662
 30
-104.499589662354
 10
-43.81249262528348
 20
0.9543010843679969
 30
-108.3266760007487
 10
-39.9096009154115
 20
0.884195821755162
 30
-108.7115745261137
 10
-35.99796360799677
 20
0.8140905592223723
 30
-109.0433029701824
  0
SPLINE
  5
142
330
1F
100
AcDbEntity
  8
0
100
AcDbSpline
 70
     0
 71
     3
 72
    12
 73
     8
 74
     0
 42
0.000000001
 43
0.0000000001
 40
0.000000000000048
 40
0.000000000000048
 40
0.000000000000048
 40
0.000000000000048
 40
214.0008192189742
 40
214.0008192189742
 40
323.6224113425628
 40
323.6224113425628
 40
337.7785761224029
 40
337.7785761224029
 40
337.7785761224029
 40
337.7785761224029
 10
-287.4999999999999
 20
8.397450054677968
 30
-0.0000000000000096
 10
-243.27034771845
 20
6.90085965309132
 30
-39.82577702232874
 10
-191.5942088541305
 20
5.40134299981144
 30
-69.76828083392449
 10
-107.407273621991
 20
3.129286789826139
 30
-97.9393700517671
 10
-77.84238593625473
 20
2.34189955141647
 30
-104.5052993673567
 10
-43.80026105234538
 20
1.448743669984671
 30
-108.3284586382548
 10
-39.89720735988617
 20
1.346595576918996
 30
-108.7129922575226
 10
-35.9854154283549
 20
1.244447483933309
 30
-109.0443998548765
  0
SPLINE
  5
143
330
1F
100
AcDbEntity
  8
0
100
AcDbSpline
 70
     0
 71
     3
 72
    12
 73
     8
 74
     0
 42
0.000000001
 43
0.0000000001
 40
0.0000000000000639
 40
0.0000000000000639
 40
0.0000000000000639
 40
0.0000000000000639
 40
214.0008192189742
 40
214.0008192189742
 40
323.6224113425628
 40
323.6224113425628
 40
337.7805502309554
 40
337.7805502309554
 40
337.7805502309554
 40
337.7805502309554
 10
-287.5
 20
11.17744747700966
 30
-0.0000000000000209
 10
-243.2542894008345
 20
9.193782286399149
 30
-39.80978020188519
 10
-191.5728330772105
 20
7.204944519966628
 30
-69.75015225344237
 10
-107.3865683317797
 20
4.189524475602189
 30
-97.94205981670551
 10
-77.82341939515011
 20
3.136696758983726
 30
-104.5132249575396
 10
-43.78366592848648
 20
1.940665022707382
 30
-108.3309305667648
 10
-39.88041398618634
 20
1.803860852115941
 30
-108.7149557378637
 10
-35.96843411432112
 20
1.667056681604405
 30
-109.0459166619294
  0
SPLINE
  5
144
330
1F
100
AcDbEntity
  8
0
100
AcDbSpline
 70
     0
 71
     3
 72
    12
 73
     8
 74
     0
 42
0.000000001
 43
0.0000000001
 40
0.0000000000000564
 40
0.0000000000000564
 40
0.0000000000000564
 40
0.0000000000000564
 40
214.0008192189742
 40
214.0008192189742
 40
323.6224113425628
 40
323.6224113425628
 40
337.7304574356702
 40
337.7304574356702
 40
337.7304574356702
 40
337.7304574356702
 10
-286.1548930838237
 20
24.83535962065968
 30
-0.0000000000000763
 10
-242.0498909661138
 20
20.46382774592209
 30
-39.67924775223874
 10
-190.5967874499918
 20
16.06879351587521
 30
-69.60222485578892
 10
-106.8269363543019
 20
9.386954856033775
 30
-97.96400802870335
 10
-77.41717523953233
 20
6.980900434265074
 30
-104.5778969781525
 10
-43.57208309125128
 20
4.232371351111463
 30
-108.3490769184804
 10
-39.70341449438398
 20
3.918975340646568
 30
-108.7274163609425
 10
-35.82617830159077
 20
3.605579330259802
 30
-109.0536888650596
  0
SPLINE
  5
145
330
1F
100
AcDbEntity
  8
0
100
AcDbSpline
 70
     0
 71
     3
 72
    12
 73
     8
 74
     0
 42
0.000000001
 43
0.0000000001
 40
0.0000000000000488
 40
0.0000000000000488
 40
0.0000000000000488
 40
0.0000000000000488
 40
214.0008192189742
 40
214.0008192189742
 40
323.6224113425628
 40
323.6224113425628
 40
337.5531956315957
 40
337.5531956315957
 40
337.5531956315957
 40
337.5531956315957
 10
-282.1256276214593
 20
38.07648141623066
 30
-0.0000000000000031
 10
-238.614300125973
 20
31.46237788894447
 30
-39.4619644941025
 10
-187.9007632671362
 20
24.79426040391835
 30
-69.35598610813027
 10
-105.367652337149
 20
14.62892628151122
 30
-98.00054284457526
 10
-76.39734830198748
 20
10.85764502625612
 30
-104.6855494997061
 10
-43.10894209786328
 20
6.531784509110138
 30
-108.3765594530269
 10
-39.34648521974891
 20
6.044034847966034
 30
-108.7433561360451
 10
-35.5758288250446
 20
5.556285186895657
 30
-109.0603988598895
  0
SPLINE
  5
146
330
1F
100
AcDbEntity
  8
0
100
AcDbSpline
 70
     0
 71
     3
 72
    12
 73
     8
 74
     0
 42
0.000000001
 43
0.0000000001
 40
0.0000000000000413
 40
0.0000000000000413
 40
0.0000000000000413
 40
0.0000000000000413
 40
214.0008192189742
 40
214.0008192189742
 40
323.6224113425628
 40
323.6224113425628
 40
337.2487329836398
 40
337.2487329836398
 40
337.2487329836398
 40
337.2487329836398
 10
-275.5370541085065
 20
50.31480198741732
 30
-0.0000000000000319
 10
-233.0540732023897
 20
41.71540339605902
 30
-39.1658508376111
 10
-183.5677046199941
 20
33.02040963063208
 30
-69.0204119062129
 10
-103.0516393873866
 20
19.72720691462378
 30
-98.0503324970772
 10
-74.79255681540137
 20
14.64395195097561
 30
-104.832258372084
 10
-42.40333854137614
 20
8.795853038359413
 30
-108.4125311437421
 10
-38.81389260975808
 20
8.149285690174516
 30
-108.7624333128497
 10
-35.2167994888689
 20
7.502718342056708
 30
-109.0660544123957
  0
SPLINE
  5
147
330
1F
100
AcDbEntity
  8
0
100
AcDbSpline
 70
     0
 71
     3
 72
    12
 73
     8
 74
     0
 42
0.000000001
 43
0.0000000001
 40
0.0000000000000338
 40
0.0000000000000338
 40
0.0000000000000338
 40
0.0000000000000338
 40
214.0008192189742
 40
214.0008192189742
 40
323.6224113425628
 40
323.6224113425628
 40
336.8155791451335
 40
336.8155791451335
 40
336.8155791451335
 40
336.8155791451335
 10
-266.6615740745983
 20
61.00887020781528
 30
-0.0000000000000315
 10
-225.5934269228828
 20
50.78441867463269
 30
-38.79882719289884
 10
-177.7683253769649
 20
40.41283334620025
 30
-68.604478145783
 10
-99.96438833193841
 20
24.5064581544342
 30
-98.11204521896501
 10
-72.65867530381934
 20
18.22511741686792
 30
-105.0140994451699
 10
-41.4730480096545
 20
10.98385249258121
 30
-108.4562504824788
 10
-38.11531008817813
 20
10.20597185912622
 30
-108.7844730556054
 10
-34.75063157862976
 20
9.428091225729982
 30
-109.0708467828997
  0
SPLINE
  5
148
330
1F
100
AcDbEntity
  8
0
100
AcDbSpline
 70
     0
 71
     3
 72
    12
 73
     8
 74
     0
 42
0.000000001
 43
0.0000000001
 40
0.0000000000000262
 40
0.0000000000000262
 40
0.0000000000000262
 40
0.0000000000000262
 40
214.0008192189742
 40
214.0008192189742
 40
323.6224113425628
 40
323.6224113425628
 40
336.2500364338347
 40
336.2500364338347
 40
336.2500364338347
 40
336.2500364338347
 10
-255.9005459646516
 20
69.70460409806297
 30
0.0000000000000329
 10
-216.5594937045997
 20
58.30070784026304
 30
-38.36881397010009
 10
-170.7502138704218
 20
46.68929397022472
 30
-68.11716072258677
 10
-96.22888365806081
 20
28.81689694501445
 30
-98.1843492429944
 10
-70.07573237363306
 20
21.50297789179037
 30
-105.2271485688473
 10
-40.34428738486208
 20
13.06021692946875
 30
-108.5070421265474
 10
-37.26647361794434
 20
12.18812938080129
 30
-108.8094028427952
 10
-34.18254564139335
 20
11.31604183218314
 30
-109.0750752543659
  0
SPLINE
  5
149
330
1F
100
AcDbEntity
  8
0
100
AcDbSpline
 70
     0
 71
     3
 72
    12
 73
     8
 74
     0
 42
0.000000001
 43
0.0000000001
 40
0.0000000000000187
 40
0.0000000000000187
 40
0.0000000000000187
 40
0.0000000000000187
 40
214.0008192189742
 40
214.0008192189742
 40
323.6224113425628
 40
323.6224113425628
 40
335.5481879507353
 40
335.5481879507353
 40
335.5481879507353
 40
335.5481879507353
 10
-243.7510270798732
 20
76.06897545367075
 30
-0.0000000000000936
 10
-206.3556643005722
 20
63.99221430008491
 30
-37.88373157934946
 10
-162.8177762482163
 20
51.63981873051028
 30
-67.56743553237071
 10
-91.99552877125738
 20
32.5441145185519
 30
-98.26591280192136
 10
-67.14121717265633
 20
24.40224809496259
 30
-105.4674815929999
 10
-39.04892389020636
 20
14.99649075277929
 30
-108.5643366903208
 10
-36.28691162324367
 20
14.07363275869879
 30
-108.8373292832766
 10
-33.51969151507474
 20
13.15077476465773
 30
-109.0792583124556
  0
SPLINE
  5
14A
330
1F
100
AcDbEntity
  8
0
100
AcDbSpline
 70
     0
 71
     3
 72
    12
 73
     8
 74
     0
 42
0.000000001
 43
0.0000000001
 40
0.0000000000000111
 40
0.0000000000000111
 40
0.0000000000000111
 40
0.0000000000000111
 40
214.0008192189742
 40
214.0008192189742
 40
323.6224113425628
 40
323.6224113425628
 40
334.7058816310907
 40
334.7058816310907
 40
334.7058816310907
 40
334.7058816310907
 10
-230.7638723012901
 20
79.90951194584744
 30
0.0000000000000645
 10
-195.4281920334211
 20
67.69913843387495
 30
-37.35150043078098
 10
-154.3073462175574
 20
55.13839292444687
 30
-66.96427847088074
 10
-87.43011818390329
 20
35.61486520398211
 30
-98.35540412850158
 10
-63.9624085133195
 20
26.87430977257212
 30
-105.7311743675111
 10
-37.62244335764515
 20
16.77269300238587
 30
-108.6276484550332
 10
-35.19919799158447
 20
15.8451348113616
 30
-108.8685072011214
 10
-32.77168783008338
 20
14.91757662036714
 30
-109.0841080852302
  0
SPLINE
  5
14B
330
1F
100
AcDbEntity
  8
0
100
AcDbSpline
 70
     0
 71
     3
 72
    12
 73
     8
 74
     0
 42
0.000000001
 43
0.0000000001
 40
0.0000000000000036
 40
0.0000000000000036
 40
0.0000000000000036
 40
0.0000000000000036
 40
214.0008192189742
 40
214.0008192189742
 40
323.6224113425628
 40
323.6224113425628
 40
333.7171962898777
 40
333.7171962898777
 40
333.7171962898777
 40
333.7171962898777
 10
-217.4999999768478
 20
81.17744748226427
 30
0.0000000000000038
 10
-184.231107513842
 20
69.37642567883972
 30
-36.78004093452949
 10
-145.5607485948863
 20
57.14478572782166
 30
-66.31666543386346
 10
-82.70048024714828
 20
37.99789070997006
 30
-98.45149145549098
 10
-60.64744795521379
 20
28.89769673090069
 30
-106.0143027422646
 10
-36.10104162505787
 20
18.37763592714292
 30
-108.6965179482713
 10
-34.02763529002716
 20
17.49055803483655
 30
-108.9032456629637
 10
-31.95089999490394
 20
16.60348014255122
 30
-109.0904210616164
  0
SPLINE
  5
14C
330
1F
100
AcDbEntity
  8
0
100
AcDbSpline
 70
     0
 71
     3
 72
    12
 73
     8
 74
     0
 42
0.000000001
 43
0.0000000001
 40
0.0000000000000058
 40
0.0000000000000058
 40
0.0000000000000058
 40
0.0000000000000058
 40
214.0008192189742
 40
214.0008192189742
 40
323.6224113425628
 40
323.6224113425628
 40
328.8239125920252
 40
328.8239125920252
 40
328.8239125920252
 40
328.8239125920252
 10
-162.5455992279851
 20
81.17744748226431
 30
0.000000000000023
 10
-137.4453442960859
 20
72.26080330295405
 30
-34.13559687144873
 10
-108.71920069218
 20
62.54219977565138
 30
-63.31981882942743
 10
-62.33721072117941
 20
46.63544725333266
 30
-98.89613812434709
 10
-46.11580418022361
 20
36.37818924548959
 30
-107.324486849131
 10
-28.8268806877768
 20
24.59491061478654
 30
-109.0514062942062
 10
-28.04305002596499
 20
24.06112654121837
 30
-109.1261706941398
 10
-27.25860335366492
 20
23.52734246765214
 30
-109.1974598131016
  0
SPLINE
  5
14D
330
1F
100
AcDbEntity
  8
0
100
AcDbSpline
 70
     0
 71
     3
 72
    12
 73
     8
 74
     0
 42
0.000000001
 43
0.0000000001
 40
0.000000000000008
 40
0.000000000000008
 40
0.000000000000008
 40
0.000000000000008
 40
214.0008192189742
 40
214.0008192189742
 40
323.6224113425628
 40
323.6224113425628
 40
323.9732780012341
 40
323.9732780012341
 40
323.9732780012341
 40
323.9732780012341
 10
-108.2391311455784
 20
81.1774474822643
 30
-0.0000000000000309
 10
-90.98743274186965
 20
74.9172880242997
 30
-31.52441676073241
 10
-71.86308879925333
 20
67.48849904735731
 30
-60.36066898102609
 10
-41.42344423713416
 20
54.4913686439142
 30
-99.33519166842567
 10
-30.84898195665382
 20
42.99344871666754
 30
-108.6181904025502
 10
-20.09335917839346
 20
30.00819452840611
 30
-109.4724067667289
 10
-20.05904190563669
 20
29.96676513054157
 30
-109.4751239969749
 10
-20.02472313235159
 20
29.92533573267702
 30
-109.4778330822305
  0
SPLINE
  5
14E
330
1F
100
AcDbEntity
  8
0
100
AcDbSpline
 70
     0
 71
     3
 72
    10
 73
     6
 74
     0
 42
0.000000001
 43
0.0000000001
 40
0.0000000000000102
 40
0.0000000000000102
 40
0.0000000000000102
 40
0.0000000000000102
 40
214.0008192189742
 40
214.0008192189742
 40
320.9074897899233
 40
320.9074897899233
 40
320.9074897899233
 40
320.9074897899233
 10
-54.18362490851427
 20
81.17744748226436
 30
0.0000000000000363
 10
-45.08624110030996
 20
76.8533988460699
 30
-29.52988988618167
 10
-35.45541104176371
 20
71.08064291796852
 30
-58.10034849442437
 10
-20.58434122403388
 20
60.25690029378509
 30
-99.32181952076313
 10
-15.5588110662667
 20
48.28551875142439
 30
-109.1116849484954
 10
-10.4927136122248
 20
34.44442238808178
 30
-109.8131580315195
  0
SPLINE
  5
14F
330
1F
100
AcDbEntity
  8
0
100
AcDbSpline
210
-1.0
220
-3.568022003954953E-16
230
5.459252213616870E-16
 70
     8
 71
     3
 72
    10
 73
     6
 74
     0
 42
0.000000001
 43
0.0000000001
 40
0.0000000000000124
 40
0.0000000000000124
 40
0.0000000000000124
 40
0.0000000000000124
 40
214.0008192189742
 40
214.0008192189742
 40
320.1377623838202
 40
320.1377623838202
 40
320.1377623838202
 40
320.1377623838202
 10
0.0000000000000409
 20
81.17744748226431
 30
0.0000000000000029
 10
-0.0000000000000124
 20
77.5988495100476
 30
-28.73540553159785
 10
-0.0000000000000098
 20
72.45998023969362
 30
-57.19998997538717
 10
-0.0000000000000067
 20
62.44398219561911
 30
-99.34540026709114
 10
-0.0000000000000042
 20
50.242797455397
 30
-109.3475088719944
 10
-0.0000000000000031
 20
36.00715609119225
 30
-109.9692834640859
  0
SPLINE
  5
150
330
1F
100
AcDbEntity
  8
0
100
AcDbSpline
 70
     0
 71
     3
 72
    10
 73
     6
 74
     0
 42
0.000000001
 43
0.0000000001
 40
0.0000000000000147
 40
0.0000000000000147
 40
0.0000000000000147
 40
0.0000000000000147
 40
214.0008192189742
 40
214.0008192189742
 40
320.9084621819676
 40
320.9084621819676
 40
320.9084621819676
 40
320.9084621819676
 10
54.18362490851431
 20
81.17744748226428
 30
-0.0000000000000247
 10
45.09303981722262
 20
76.85339884606987
 30
-29.5406397989312
 10
35.46249028034475
 20
71.08064291796849
 30
-58.11636144548304
 10
20.58857868015484
 20
60.25686749641653
 30
-99.3349047899579
 10
15.56153500505668
 20
48.28530097430902
 30
-109.1219849523874
 10
10.49393328183171
 20
34.44404470383293
 30
-109.8184132363878
  0
SPLINE
  5
151
330
1F
100
AcDbEntity
  8
0
100
AcDbSpline
 70
     0
 71
     3
 72
    12
 73
     8
 74
     0
 42
0.000000001
 43
0.0000000001
 40
0.0000000000000169
 40
0.0000000000000169
 40
0.0000000000000169
 40
0.0000000000000169
 40
214.0008192189742
 40
214.0008192189742
 40
323.6224113425628
 40
323.6224113425628
 40
323.9785338712696
 40
323.9785338712696
 40
323.9785338712696
 40
323.9785338712696
 10
108.2391311455785
 20
81.17744748226441
 30
-0.0000000000000179
 10
91.01129941426387
 20
74.91728802429975
 30
-31.56215397632075
 10
71.88794023374963
 20
67.48849904735735
 30
-60.41688191971562
 10
41.43839484396037
 20
54.49136864391421
 30
-99.38059796976198
 10
30.85860247956577
 20
42.99344871666754
 30
-108.6532130185142
 10
20.09720544889862
 20
30.00757392931114
 30
-109.489450141662
 10
20.06235705917232
 20
29.96552393235162
 30
-109.4921495199749
 10
20.02750712467307
 20
29.92347393539211
 30
-109.4948404274207
  0
SPLINE
  5
152
330
1F
100
AcDbEntity
  8
0
100
AcDbSpline
 70
     0
 71
     3
 72
    12
 73
     8
 74
     0
 42
0.000000001
 43
0.0000000001
 40
0.0000000000000191
 40
0.0000000000000191
 40
0.0000000000000191
 40
0.0000000000000191
 40
214.0008192189742
 40
214.0008192189742
 40
323.6224113425628
 40
323.6224113425628
 40
328.8339179437037
 40
328.8339179437037
 40
328.8339179437037
 40
328.8339179437037
 10
162.5455992279853
 20
81.1774474822643
 30
-0.0000000000000275
 10
137.4915558696458
 20
72.26080330295406
 30
-34.20866512685109
 10
108.7673190001839
 20
62.54219977565137
 30
-63.42866049400298
 10
62.36615866397186
 20
46.63544725333265
 30
-98.98405555999224
 10
46.13443180852835
 20
36.37818924548958
 30
-107.3922989918187
 10
28.8333671245056
 20
24.59388385402647
 30
-109.0829373645452
 10
28.04754523395804
 20
24.05907301969822
 30
-109.1561523519309
 10
27.2611058169604
 20
23.52426218537191
 30
-109.2258453158773
  0
SPLINE
  5
153
330
1F
100
AcDbEntity
  8
0
100
AcDbSpline
 70
     0
 71
     3
 72
    12
 73
     8
 74
     0
 42
0.000000001
 43
0.0000000001
 40
0.0000000000000213
 40
0.0000000000000213
 40
0.0000000000000213
 40
0.0000000000000213
 40
214.0008192189742
 40
214.0008192189742
 40
323.6224113425628
 40
323.6224113425628
 40
333.7286226332959
 40
333.7286226332959
 40
333.7286226332959
 40
333.7286226332959
 10
217.4999999768478
 20
81.17744748226436
 30
-0.0000000000000109
 10
184.2999486413666
 20
69.37642567883978
 30
-36.88889031360652
 10
145.6324301742483
 20
57.14478572782169
 30
-66.47880626426272
 10
82.74360383866089
 20
37.99789070997006
 30
-98.58246157688399
 10
60.67519743087158
 20
28.89769673090069
 30
-106.1153221190761
 10
36.10993055853254
 20
18.37663183872608
 30
-108.74120813525
 10
34.03278112561323
 20
17.48854985800286
 30
-108.9431856837793
 10
31.95230228412668
 20
16.60046787730076
 30
-109.125378793562
  0
SPLINE
  5
154
330
1F
100
AcDbEntity
  8
0
100
AcDbSpline
 70
     0
 71
     3
 72
    12
 73
     8
 74
     0
 42
0.000000001
 43
0.0000000001
 40
0.0000000000000155
 40
0.0000000000000155
 40
0.0000000000000155
 40
0.0000000000000155
 40
214.0008192189742
 40
214.0008192189742
 40
323.6224113425628
 40
323.6224113425628
 40
334.7170659461364
 40
334.7170659461364
 40
334.7170659461364
 40
334.7170659461364
 10
230.7638723012897
 20
79.90951194584744
 30
-0.0000000000000886
 10
195.5019233659186
 20
67.69913843387496
 30
-37.46808204484691
 10
154.384119776503
 20
55.13839292444686
 30
-67.13793715294406
 10
87.47630510702102
 20
35.61486520398209
 30
-98.49567785606774
 10
63.99212920340598
 20
26.87430977257212
 30
-105.8393697665154
 10
37.63188631958268
 20
16.77175700465577
 30
-108.6750071124491
 10
35.20455437187291
 20
15.8432628159014
 30
-108.9102277680867
 10
32.77295875191506
 20
14.91476862717695
 30
-109.1198968650719
  0
SPLINE
  5
155
330
1F
100
AcDbEntity
  8
0
100
AcDbSpline
 70
     0
 71
     3
 72
    12
 73
     8
 74
     0
 42
0.000000001
 43
0.0000000001
 40
0.0000000000000098
 40
0.0000000000000098
 40
0.0000000000000098
 40
0.0000000000000098
 40
214.0008192189742
 40
214.0008192189742
 40
323.6224113425628
 40
323.6224113425628
 40
335.5592193405362
 40
335.5592193405362
 40
335.5592193405362
 40
335.5592193405362
 10
243.7510270798739
 20
76.06897545367076
 30
0.0000000000001448
 10
206.4339501455547
 20
63.99221430008492
 30
-38.00751464222479
 10
162.8992922432587
 20
51.63981873051029
 30
-67.75182141287985
 10
92.04456874084576
 20
32.5441145185519
 30
-98.41485148130265
 10
67.1727737613962
 20
24.40224809496259
 30
-105.5823604097422
 10
39.05885981254882
 20
14.99563710554121
 30
-108.6141642574013
 10
36.29241803216178
 20
14.07192546422262
 30
-108.8806705517771
 10
33.52077134648143
 20
13.1482138229436
 30
-109.1157572429333
  0
SPLINE
  5
156
330
1F
100
AcDbEntity
  8
0
100
AcDbSpline
 70
     0
 71
     3
 72
    12
 73
     8
 74
     0
 42
0.000000001
 43
0.0000000001
 40
0.000000000000004
 40
0.000000000000004
 40
0.000000000000004
 40
0.000000000000004
 40
214.0008192189742
 40
214.0008192189742
 40
323.6224113425628
 40
323.6224113425628
 40
336.2607776386574
 40
336.2607776386574
 40
336.2607776386574
 40
336.2607776386574
 10
255.9005459646512
 20
69.7046040980629
 30
-0.0000000000000383
 10
216.641930591493
 20
58.30070784026301
 30
-38.49916052707948
 10
170.8360521833995
 20
46.68929397022469
 30
-68.31132351127266
 10
96.28052393130726
 20
28.81689694501442
 30
-98.34118527215239
 10
70.10896222428205
 20
21.50297789179036
 30
-105.3481187394375
 10
40.35470673891248
 20
13.05947512165328
 30
-108.5591069234799
 10
37.27218526165667
 20
12.18664576517035
 30
-108.8541931591581
 10
34.18355460468614
 20
11.31381640873686
 30
-109.1121759889024
  0
SPLINE
  5
157
330
1F
100
AcDbEntity
  8
0
100
AcDbSpline
 70
     0
 71
     3
 72
    12
 73
     8
 74
     0
 42
0.000000001
 43
0.0000000001
 40
-0.0000000000000018
 40
-0.0000000000000018
 40
-0.0000000000000018
 40
-0.0000000000000018
 40
214.0008192189742
 40
214.0008192189742
 40
323.6224113425628
 40
323.6224113425628
 40
336.8262900784768
 40
336.8262900784768
 40
336.8262900784768
 40
336.8262900784768
 10
266.6615740745984
 20
61.00887020781537
 30
0.000000000000039
 10
225.6795436030333
 20
50.78441867463278
 30
-38.93499212074916
 10
177.8579953150463
 20
40.4128333462003
 30
-68.80730791532434
 10
100.0183337083546
 20
24.50645815443422
 30
-98.2758820481803
 10
72.69338845866575
 20
18.22511741686793
 30
-105.1404694462822
 10
41.4838440049904
 20
10.9832209666476
 30
-108.5103041432071
 10
38.12109965796144
 20
10.20470880725898
 30
-108.8305563684635
 10
34.75142160463284
 20
9.426196647929252
 30
-109.1084894317691
  0
SPLINE
  5
158
330
1F
100
AcDbEntity
  8
0
100
AcDbSpline
 70
     0
 71
     3
 72
    12
 73
     8
 74
     0
 42
0.000000001
 43
0.0000000001
 40
-0.0000000000000075
 40
-0.0000000000000075
 40
-0.0000000000000075
 40
-0.0000000000000075
 40
214.0008192189742
 40
214.0008192189742
 40
323.6224113425628
 40
323.6224113425628
 40
337.2597464894195
 40
337.2597464894195
 40
337.2597464894195
 40
337.2597464894195
 10
275.5370541085064
 20
50.31480198741745
 30
-0.0000000000001269
 10
233.143330649059
 20
41.71540339605908
 30
-39.30698184457299
 10
183.6606449156737
 20
33.02040963063213
 30
-69.2306390922374
 10
103.1075522088064
 20
19.7272069146238
 30
-98.22014462895015
 10
74.8285359957647
 20
14.64395195097562
 30
-104.9632372209573
 10
42.41437538055213
 20
8.795330448814433
 30
-108.4682993750181
 10
38.81958704967086
 20
8.148240511084548
 30
-108.8096519097587
 10
35.21715972744369
 20
7.501150573421921
 30
-109.104203487177
  0
SPLINE
  5
159
330
1F
100
AcDbEntity
  8
0
100
AcDbSpline
 70
     0
 71
     3
 72
    12
 73
     8
 74
     0
 42
0.000000001
 43
0.0000000001
 40
-0.0000000000000133
 40
-0.0000000000000133
 40
-0.0000000000000133
 40
-0.0000000000000133
 40
214.0008192189742
 40
214.0008192189742
 40
323.6224113425628
 40
323.6224113425628
 40
337.5641955797643
 40
337.5641955797643
 40
337.5641955797643
 40
337.5641955797643
 10
282.1256276214592
 20
38.07648141623064
 30
0.0000000000000456
 10
238.7060915343405
 20
31.46237788894444
 30
-39.60710211988924
 10
187.9963420782369
 20
24.79426040391832
 30
-69.57218150921369
 10
105.4251524877296
 20
14.6289262815112
 30
-98.1751758340252
 10
76.43434890821922
 20
10.8576450262561
 30
-104.8202467541435
 10
43.12024906026681
 20
6.531399374943918
 30
-108.4337186471137
 10
39.35225484615323
 20
6.043264579633603
 30
-108.791508741313
 10
35.57607062025764
 20
5.55512978439719
 30
-109.0989877834695
  0
SPLINE
  5
15A
330
1F
100
AcDbEntity
  8
0
100
AcDbSpline
 70
     0
 71
     3
 72
    12
 73
     8
 74
     0
 42
0.000000001
 43
0.0000000001
 40
-0.0000000000000191
 40
-0.0000000000000191
 40
-0.0000000000000191
 40
-0.0000000000000191
 40
214.0008192189742
 40
214.0008192189742
 40
323.6224113425628
 40
323.6224113425628
 40
337.7415724964744
 40
337.7415724964744
 40
337.7415724964744
 40
337.7415724964744
 10
286.1548930838237
 20
24.83535962065977
 30
-0.0000000000000133
 10
242.1435417532763
 20
20.46382774592213
 30
-39.82732536803711
 10
190.6943023596639
 20
16.06879351587524
 30
-69.82279963345577
 10
106.8856012605237
 20
9.386954856033785
 30
-98.14217848296917
 10
77.45492535101576
 20
6.980900434265077
 30
-104.7153227365219
 10
43.58356910477377
 20
4.232124441249594
 30
-108.4072834272142
 10
39.70920081375796
 20
3.918481520922829
 30
-108.7763091315729
 10
35.82627514731997
 20
3.604838600674377
 30
-109.0926850472881
  0
SPLINE
  5
15B
330
1F
100
AcDbEntity
  8
0
100
AcDbSpline
 70
     0
 71
     3
 72
    12
 73
     8
 74
     0
 42
0.000000001
 43
0.0000000001
 40
-0.0000000000000249
 40
-0.0000000000000249
 40
-0.0000000000000249
 40
-0.0000000000000249
 40
214.0008192189742
 40
214.0008192189742
 40
323.6224113425628
 40
323.6224113425628
 40
337.7917538829322
 40
337.7917538829322
 40
337.7917538829322
 40
337.7917538829322
 10
287.5000000000001
 20
11.17744747700972
 30
0.0000000000000316
 10
243.349057205806
 20
9.193782286399161
 30
-39.95962401035505
 10
191.6715110939323
 20
7.204944519966636
 30
-69.97335793216565
 10
107.4459329624459
 20
4.189524475602193
 30
-98.1223553953455
 10
77.8616197703003
 20
3.136696758983729
 30
-104.6522898587735
 10
43.79527506298784
 20
1.940556766507302
 30
-108.3898014163058
 10
39.88624143026379
 20
1.80364433971578
 30
-108.7643673373113
 10
35.96849029799306
 20
1.666731913004352
 30
-109.0852746103142
  0
SPLINE
  5
15C
330
1F
100
AcDbEntity
  8
0
100
AcDbSpline
 70
     0
 71
     3
 72
    12
 73
     8
 74
     0
 42
0.000000001
 43
0.0000000001
 40
-0.0000000000000187
 40
-0.0000000000000187
 40
-0.0000000000000187
 40
-0.0000000000000187
 40
214.0008192189742
 40
214.0008192189742
 40
323.6224113425628
 40
323.6224113425628
 40
337.789594948246
 40
337.789594948246
 40
337.789594948246
 40
337.789594948246
 10
287.4999999999999
 20
8.397450054677977
 30
0.0000000000000557
 10
243.3652524145423
 20
6.900859653091299
 30
-39.97583727864056
 10
191.6930294102336
 20
5.401342999811424
 30
-69.99180893095767
 10
107.4667240042563
 20
3.129286789826127
 30
-98.11992606551823
 10
77.88064149145436
 20
2.34189955141646
 30
-104.6445651464118
 10
43.8119423854998
 20
1.448664160310596
 30
-108.3874102240082
 10
39.90315433526497
 20
1.346436557570854
 30
-108.762468169829
 10
35.98563869793981
 20
1.244208954911286
 30
-109.0838063965961
  0
SPLINE
  5
15D
330
1F
100
AcDbEntity
  8
0
100
AcDbSpline
 70
     0
 71
     3
 72
    12
 73
     8
 74
     0
 42
0.000000001
 43
0.0000000001
 40
-0.0000000000000126
 40
-0.0000000000000126
 40
-0.0000000000000126
 40
-0.0000000000000126
 40
214.0008192189742
 40
214.0008192189742
 40
323.6224113425628
 40
323.6224113425628
 40
337.788385456773
 40
337.788385456773
 40
337.788385456773
 40
337.788385456773
 10
287.5000000000001
 20
5.761830655983186
 30
0.0000000000000061
 10
243.3769763459062
 20
4.723203403460763
 30
-39.98751754180131
 10
191.7086448606089
 20
3.683268182277674
 30
-70.00510128618637
 10
107.4819012280637
 20
2.108654577591135
 30
-98.11817594264437
 10
77.89457310564296
 20
1.567339614466657
 30
-104.6390001565753
 10
43.82411552201198
 20
0.9542451819771613
 30
-108.3856979266838
 10
39.91541255175068
 20
0.8840840169734943
 30
-108.7611181077206
 10
35.99797432988025
 20
0.8139228520500636
 30
-109.0827719655971
  0
SPLINE
  5
15E
330
1F
100
AcDbEntity
  8
0
100
AcDbSpline
 70
     0
 71
     3
 72
    12
 73
     8
 74
     0
 42
0.000000001
 43
0.0000000001
 40
-0.0000000000000064
 40
-0.0000000000000064
 40
-0.0000000000000064
 40
-0.0000000000000064
 40
214.0008192189742
 40
214.0008192189742
 40
323.6224113425628
 40
323.6224113425628
 40
337.7874953215234
 40
337.7874953215234
 40
337.7874953215234
 40
337.7874953215234
 10
287.4999999999998
 20
3.056040417817556
 30
-0.0000000000000147
 10
243.3839416140289
 20
2.496114286316236
 30
-39.99458454975677
 10
191.7178364864687
 20
1.935859309561628
 30
-70.01314367177778
 10
107.4906338990811
 20
1.088118493399502
 30
-98.11711705106785
 10
77.90248648482635
 20
0.798964106593053
 30
-104.6356331239233
 10
43.83093442497174
 20
0.4719863217269897
 30
-108.384657088408
 10
39.92231827167949
 20
0.434569792519555
 30
-108.7602928050863
 10
36.00496241480536
 20
0.3971532633923918
 30
-109.0821352176412
  0
SPLINE
  5
15F
330
1F
100
AcDbEntity
  8
0
100
AcDbSpline
210
7.851618606149878E-13
220
1.0
230
-1.074722226566152E-12
 70
     8
 71
     3
 72
    12
 73
     8
 74
     0
 42
0.000000001
 43
0.0000000001
 40
-0.0000000000000003
 40
-0.0000000000000003
 40
-0.0000000000000003
 40
-0.0000000000000003
 40
214.0008192189742
 40
214.0008192189742
 40
323.6224113425628
 40
323.6224113425628
 40
337.7872223383921
 40
337.7872223383921
 40
337.7872223383921
 40
337.7872223383921
 10
287.4999999999999
 20
0.0000000000000486
 30
0.0000000000000178
 10
243.386218165302
 20
0.0000000000000069
 30
-39.99695805242644
 10
191.7207979937423
 20
0.0000000000000032
 30
-70.01584476165797
 10
107.4933463222013
 20
-0.0000000000000019
 30
-98.11676141513257
 10
77.90489158354673
 20
-0.0000000000000034
 30
-104.634502283115
 10
43.83292847602058
 20
-0.000000000000005
 30
-108.3843082950491
 10
39.92433014459969
 20
-0.0000000000000051
 30
-108.7600169861145
 10
36.00699058446438
 20
0.0000000000802786
 30
-109.0819231150341
  0
SPLINE
  5
160
330
1F
100
AcDbEntity
  8
0
100
AcDbSpline
 70
     0
 71
     3
 72
    12
 73
     8
 74
     0
 42
0.000000001
 43
0.0000000001
 40
0.0000000000000804
 40
0.0000000000000804
 40
0.0000000000000804
 40
0.0000000000000804
 40
214.0008192189742
 40
214.0008192189742
 40
323.6224113425628
 40
323.6224113425628
 40
337.9347453699903
 40
337.9347453699903
 40
337.9347453699903
 40
337.9347453699903
 10
287.4999999999997
 20
-44.9579696023268
 30
-0.0000000000000603
 10
243.1267326144233
 20
-36.77838902616899
 30
-39.96176123448914
 10
191.3748668359486
 20
-28.42008585020739
 30
-69.96916565932172
 10
107.1563844827224
 20
-15.62971715356793
 30
-98.08180910706005
 10
77.59520746076133
 20
-11.27107653422637
 30
-104.6085699415968
 10
43.52862453796333
 20
-6.325867290758748
 30
-108.3780687345971
 10
39.58475534203614
 20
-5.754512957373962
 30
-108.7589625136791
 10
35.63217699174023
 20
-5.18291846545534
 30
-109.0849971618929
  0
SPLINE
  5
161
330
1F
100
AcDbEntity
  8
0
100
AcDbSpline
 70
     0
 71
     3
 72
    12
 73
     8
 74
     0
 42
0.000000001
 43
0.0000000001
 40
0.0000000000001611
 40
0.0000000000001611
 40
0.0000000000001611
 40
0.0000000000001611
 40
214.0008192189742
 40
214.0008192189742
 40
323.6224113425628
 40
323.6224113425628
 40
338.3885931797237
 40
338.3885931797237
 40
338.3885931797237
 40
338.3885931797237
 10
287.5000000000003
 20
-90.20434762171753
 30
-0.0000000000000571
 10
242.405049746411
 20
-74.15929166751079
 30
-39.86517280491802
 10
190.4063638125203
 20
-57.44505584333891
 30
-69.84106711369523
 10
106.1979885896283
 20
-31.60533009719292
 30
-97.98589167064216
 10
76.70675416691522
 20
-22.75476044821375
 30
-104.5374054361344
 10
42.6365006428894
 20
-12.6462464107365
 30
-108.3626392655075
 10
38.58229255134992
 20
-11.44520429481984
 30
-108.7590298895411
 10
34.5194433070955
 20
-10.24320802933832
 30
-109.0972295864404
  0
ARC
  5
162
330
1F
100
AcDbEntity
  8
0
100
AcDbCircle
 10
0.0
 20
-0.0000000000000086
 30
-140.0
 40
22.0
100
AcDbArc
 50
270.0
 51
89.99999999999999
  0
LINE
  5
163
330
1F
100
AcDbEntity
  8
0
100
AcDbLine
 10
22.0
 20
-0.0000000000000102
 30
-167.0
 11
22.0
 21
-0.0000000000000069
 31
-113.0
  0
ARC
  5
164
330
1F
100
AcDbEntity
  8
0
100
AcDbCircle
 10
-215.0
 20
-179.9999999999999
 30
35.0
 40
83.77777306778867
210
0.0
220
0.0
230
-1.0
100
AcDbArc
 50
180.0
 51
270.0
  0
LINE
  5
165
330
1F
100
AcDbEntity
  8
0
100
AcDbLine
 10
299.9999999999999
 20
-34.99999999999994
 30
-70.0
 11
297.5555461355777
 21
-34.99999999999994
 31
-0.0000000000000129
  0
LINE
  5
166
330
1F
100
AcDbEntity
  8
0
100
AcDbLine
 10
298.7777730677888
 20
110.0000000000001
 30
-35.00000000000002
 11
298.7777730677888
 21
-179.9999999999999
 31
-35.0
  0
ARC
  5
167
330
1F
100
AcDbEntity
  8
0
100
AcDbCircle
 10
-214.9999999999999
 20
110.0000000000002
 30
35.0
 40
83.77777306778898
210
0.0
220
0.0
230
-1.0
100
AcDbArc
 50
90.0
 51
180.0
  0
LINE
  5
168
330
1F
100
AcDbEntity
  8
0
100
AcDbLine
 10
-0.0000000000000284
 20
195.0
 30
-70.00000000000001
 11
-0.0000000000000284
 21
192.5555461355777
 31
-0.0000000000000394
  0
LINE
  5
169
330
1F
100
AcDbEntity
  8
0
100
AcDbLine
 10
-215.0
 20
193.7777730677888
 30
-35.00000000000003
 11
214.9999999999999
 21
193.7777730677889
 31
-35.00000000000003
  0
ARC
  5
16A
330
1F
100
AcDbEntity
  8
0
100
AcDbCircle
 10
214.9999999999999
 20
110.0000000000001
 30
35.0
 40
83.77777306778898
210
0.0
220
0.0
230
-1.0
100
AcDbArc
 50
0.0
 51
90.0
  0
LINE
  5
16B
330
1F
100
AcDbEntity
  8
0
100
AcDbLine
 10
-297.5555461355777
 20
-35.00000000000009
 30
-0.0000000000000155
 11
-299.9999999999999
 21
-35.00000000000009
 31
-70.0
  0
LINE
  5
16C
330
1F
100
AcDbEntity
  8
0
100
AcDbLine
 10
-298.7777730677888
 20
110.0
 30
-35.00000000000001
 11
-298.7777730677888
 21
-180.0000000000001
 31
-35.0
  0
ARC
  5
16D
330
1F
100
AcDbEntity
  8
0
100
AcDbCircle
 10
215.0
 20
-180.0
 30
35.0
 40
83.77777306778862
210
0.0
220
0.0
230
-1.0
100
AcDbArc
 50
270.0
 51
0.0
  0
LINE
  5
16E
330
1F
100
AcDbEntity
  8
0
100
AcDbLine
 10
0.0000000000000568
 20
-262.5555461355776
 30
-0.0000000000000047
 11
0.0000000000000568
 21
-264.9999999999999
 31
-69.99999999999997
  0
LINE
  5
16F
330
1F
100
AcDbEntity
  8
0
100
AcDbLine
 10
-215.0
 20
-263.7777730677888
 30
-34.99999999999999
 11
215.0
 21
-263.7777730677887
 31
-35.0
  0
SPLINE
  5
170
330
1F
100
AcDbEntity
  8
0
100
AcDbSpline
210
0.0
220
0.0
230
1.0
 70
     8
 71
     3
 72
     8
 73
     4
 74
     0
 42
0.000000001
 43
0.0000000001
 40
661.4419320019738
 40
661.4419320019738
 40
661.4419320019738
 40
661.4419320019738
 40
662.3298957251529
 40
662.3298957251529
 40
662.3298957251529
 40
662.3298957251529
 10
49.70338566704838
 20
-11.42692231069485
 30
-130.0000000000003
 10
49.68827412597452
 20
-11.49265758908038
 30
-130.0000000000003
 10
49.67303597556864
 20
-11.55834592695722
 30
-130.0000000000003
 10
49.65767147381838
 20
-11.62398709706769
 30
-130.0000000000003
  0
SPLINE
  5
171
330
1F
100
AcDbEntity
  8
0
100
AcDbSpline
 70
     0
 71
     3
 72
     8
 73
     4
 74
     0
 42
0.000000001
 43
0.0000000001
 40
0.0000000000000237
 40
0.0000000000000237
 40
0.0000000000000237
 40
0.0000000000000237
 40
223.0136187293802
 40
223.0136187293802
 40
223.0136187293802
 40
223.0136187293802
 10
212.0
 20
-71.60434857394588
 30
-70.00000000000006
 10
161.3997408297566
 20
-53.77216592317983
 30
-99.51313188908361
 10
106.5696498362681
 20
-34.98794987427734
 30
-119.8191742449113
 10
49.70362536913105
 20
-15.91656638397809
 30
-129.8033019651761
  0
SPLINE
  5
172
330
1F
100
AcDbEntity
  8
0
100
AcDbSpline
 70
     0
 71
     3
 72
     8
 73
     4
 74
     0
 42
0.000000001
 43
0.0000000001
 40
0.0000000000000474
 40
0.0000000000000474
 40
0.0000000000000474
 40
0.0000000000000474
 40
219.2419052217705
 40
219.2419052217705
 40
219.2419052217705
 40
219.2419052217705
 10
212.0000000000001
 20
-108.3366362033538
 30
-70.00000000000004
 10
160.914569239677
 20
-81.94678713479716
 30
-99.49218466607194
 10
106.2169922759556
 20
-53.63913802104815
 30
-119.6927105227421
 10
49.74910488285899
 20
-24.73036031864497
 30
-129.3265712583605
  0
SPLINE
  5
173
330
1F
100
AcDbEntity
  8
0
100
AcDbSpline
 70
     0
 71
     3
 72
     8
 73
     4
 74
     0
 42
0.000000001
 43
0.0000000001
 40
0.0000000000000711
 40
0.0000000000000711
 40
0.0000000000000711
 40
0.0000000000000711
 40
214.433077544791
 40
214.433077544791
 40
214.433077544791
 40
214.433077544791
 10
212.0000000000001
 20
-145.2154758506659
 30
-70.0
 10
160.3124664587599
 20
-110.690942245416
 30
-99.4175190879883
 10
105.7263921613439
 20
-73.16414304748686
 30
-119.4861315442047
 10
49.68732740137939
 20
-34.65108238498086
 30
-128.7658837753997
  0
SPLINE
  5
174
330
1F
100
AcDbEntity
  8
0
100
AcDbSpline
 70
     0
 71
     3
 72
     8
 73
     4
 74
     0
 42
0.000000001
 43
0.0000000001
 40
0.0000000000000577
 40
0.0000000000000577
 40
0.0000000000000577
 40
0.0000000000000577
 40
213.3052313789884
 40
213.3052313789884
 40
213.3052313789884
 40
213.3052313789884
 10
211.2649437280098
 20
-152.8492436927912
 30
-70.00000000000001
 10
159.6876180578862
 20
-116.6939394494791
 30
-99.3887697854147
 10
105.3641200898652
 20
-77.3121484872774
 30
-119.4258950238867
 10
49.65680800782945
 20
-36.85904271652539
 30
-128.6402115023307
  0
SPLINE
  5
175
330
1F
100
AcDbEntity
  8
0
100
AcDbSpline
 70
     0
 71
     3
 72
     8
 73
     4
 74
     0
 42
0.000000001
 43
0.0000000001
 40
0.0000000000000444
 40
0.0000000000000444
 40
0.0000000000000444
 40
0.0000000000000444
 40
212.0570881264532
 40
212.0570881264532
 40
212.0570881264532
 40
212.0570881264532
 10
209.0305055376093
 20
-160.3400240595082
 30
-70.00000000000003
 10
158.0597766774833
 20
-122.6249196589048
 30
-99.34402149164522
 10
104.497358701674
 20
-81.46424853541494
 30
-119.3442981791721
 10
49.62144837704955
 20
-39.14605266377809
 30
-128.5016318086837
  0
SPLINE
  5
176
330
1F
100
AcDbEntity
  8
0
100
AcDbSpline
 70
     0
 71
     3
 72
     8
 73
     4
 74
     0
 42
0.000000001
 43
0.0000000001
 40
0.0000000000000311
 40
0.0000000000000311
 40
0.0000000000000311
 40
0.0000000000000311
 40
210.648514521064
 40
210.648514521064
 40
210.648514521064
 40
210.648514521064
 10
205.3245939014901
 20
-167.3397577233096
 30
-70.0
 10
155.4475486255396
 20
-128.2576652040802
 30
-99.27703433746271
 10
103.1354346145537
 20
-85.5191811736861
 30
-119.2329318362122
 10
49.58122769009378
 20
-41.53621854358399
 30
-128.3448780478753
  0
SPLINE
  5
177
330
1F
100
AcDbEntity
  8
0
100
AcDbSpline
 70
     0
 71
     3
 72
     8
 73
     4
 74
     0
 42
0.000000001
 43
0.0000000001
 40
0.0000000000000178
 40
0.0000000000000178
 40
0.0000000000000178
 40
0.0000000000000178
 40
209.0385124152901
 40
209.0385124152901
 40
209.0385124152901
 40
209.0385124152901
 10
200.2748234726608
 20
-173.5094100276667
 30
-69.99999999999999
 10
151.9362327823033
 20
-133.3691360661365
 30
-99.18135422065212
 10
101.3211736266358
 20
-89.37334813605031
 30
-119.0830501369608
 10
49.53639710256942
 20
-44.04587053229012
 30
-128.1643776119898
  0
SPLINE
  5
178
330
1F
100
AcDbEntity
  8
0
100
AcDbSpline
 70
     0
 71
     3
 72
     8
 73
     4
 74
     0
 42
0.000000001
 43
0.0000000001
 40
0.0000000000000044
 40
0.0000000000000044
 40
0.0000000000000044
 40
0.0000000000000044
 40
207.1858257066774
 40
207.1858257066774
 40
207.1858257066774
 40
207.1858257066774
 10
194.1032882713407
 20
-178.5539972233559
 30
-69.99999999999997
 10
147.6745944785546
 20
-137.7631110761961
 30
-99.0503961859592
 10
99.12965982323279
 20
-92.93302196010427
 30
-118.8856447459817
 10
49.48821889927657
 20
-46.68436312562942
 30
-127.9541863518498
  0
SPLINE
  5
179
330
1F
100
AcDbEntity
  8
0
100
AcDbSpline
 70
     0
 71
     3
 72
     8
 73
     4
 74
     0
 42
0.000000001
 43
0.0000000001
 40
-0.0000000000000089
 40
-0.0000000000000089
 40
-0.0000000000000089
 40
-0.0000000000000089
 40
205.0534454192417
 40
205.0534454192417
 40
205.0534454192417
 40
205.0534454192417
 10
187.1061996865464
 20
-182.2534692665933
 30
-69.99999999999997
 10
142.8606581693528
 20
-141.2897775395135
 30
-98.87808058342952
 10
96.66010180530623
 20
-96.12241067010423
 30
-118.632264416548
 10
49.43688096355523
 20
-49.45064126435234
 30
-127.7084025995651
  0
SPLINE
  5
17A
330
1F
100
AcDbEntity
  8
0
100
AcDbSpline
 70
     0
 71
     3
 72
     8
 73
     4
 74
     0
 42
0.000000001
 43
0.0000000001
 40
-0.0000000000000222
 40
-0.0000000000000222
 40
-0.0000000000000222
 40
-0.0000000000000222
 40
202.6088373466689
 40
202.6088373466689
 40
202.6088373466689
 40
202.6088373466689
 10
179.6227254411353
 20
-184.4825632265608
 30
-69.99999999999997
 10
137.7217350252119
 20
-143.8592322504607
 30
-98.65888247249016
 10
94.02708472262968
 20
-98.89069075818833
 30
-118.3150317458271
 10
49.38397649512973
 20
-52.33383064098501
 30
-127.4210183277075
  0
SPLINE
  5
17B
330
1F
100
AcDbEntity
  8
0
100
AcDbSpline
 70
     0
 71
     3
 72
     8
 73
     4
 74
     0
 42
0.000000001
 43
0.0000000001
 40
-0.0000000000000355
 40
-0.0000000000000355
 40
-0.0000000000000355
 40
-0.0000000000000355
 40
199.8263719376003
 40
199.8263719376003
 40
199.8263719376003
 40
199.8263719376003
 10
171.9999999859948
 20
-185.2154758643206
 30
-69.99999999999997
 10
132.4908016102737
 20
-145.4446329979872
 30
-98.38819618331594
 10
91.34832350320741
 20
-101.2134138149908
 30
-117.9270946200778
 10
49.33162441710761
 20
-55.31291470030564
 30
-127.0860780206498
  0
SPLINE
  5
17C
330
1F
100
AcDbEntity
  8
0
100
AcDbSpline
 70
     0
 71
     3
 72
     8
 73
     4
 74
     0
 42
0.000000001
 43
0.0000000001
 40
-0.0000000000000255
 40
-0.0000000000000255
 40
-0.0000000000000255
 40
-0.0000000000000255
 40
175.9434788687691
 40
175.9434788687691
 40
175.9434788687691
 40
175.9434788687691
 10
128.6966197822777
 20
-185.2154758643206
 30
-69.99999999999999
 10
102.7982714271326
 20
-152.5845494116995
 30
-95.59159023292857
 10
76.10988926087094
 20
-115.4973111300966
 30
-113.9291309996129
 10
48.95475479603257
 20
-76.40903113347403
 30
-123.7945350276217
  0
SPLINE
  5
17D
330
1F
100
AcDbEntity
  8
0
100
AcDbSpline
 70
     0
 71
     3
 72
     8
 73
     4
 74
     0
 42
0.000000001
 43
0.0000000001
 40
-0.0000000000000155
 40
-0.0000000000000155
 40
-0.0000000000000155
 40
-0.0000000000000155
 40
124.8002141560866
 40
124.8002141560866
 40
124.8002141560866
 40
124.8002141560866
 10
85.7317765065303
 20
-185.2154758643206
 30
-69.99999999999999
 10
73.48648836606421
 20
-163.4045057787285
 30
-88.51178515145335
 10
61.0471396437846
 20
-138.9248548185728
 30
-103.2056265025754
 10
48.4700570874105
 20
-112.8194706189884
 30
-113.5942909705254
  0
ARC
  5
17E
330
1F
100
AcDbEntity
  8
0
100
AcDbCircle
 10
-0.0000000000005499
 20
-0.0000000000000091
 30
-148.4999985588111
 40
44.26655119062557
100
AcDbArc
 50
180.0
 51
194.1341871934558
  0
ARC
  5
17F
330
1F
100
AcDbEntity
  8
0
100
AcDbCircle
 10
-0.0000000000005499
 20
-0.0000000000000091
 30
-148.4999985588111
 40
44.26655119062557
100
AcDbArc
 50
345.865812800263
 51
0.0000000000000404
  0
LINE
  5
180
330
1F
100
AcDbEntity
  8
0
100
AcDbLine
 10
-0.0000000000006808
 20
-37.5331013321505
 30
-167.0
 11
-0.0000000000006349
 21
-39.89049424272154
 31
-160.5231162094237
  0
LINE
  5
181
330
1F
100
AcDbEntity
  8
0
100
AcDbLine
 10
-37.53310133215118
 20
-0.0000000000000031
 30
-166.9999999999997
 11
-22.0
 21
-0.0000000000000031
 31
-166.9999999999999
  0
LINE
  5
182
330
1F
100
AcDbEntity
  8
0
100
AcDbLine
 10
22.0
 20
-0.0000000000000031
 30
-167.0000000000001
 11
37.53310133214983
 21
-0.0000000000000031
 31
-167.0000000000003
  0
LINE
  5
183
330
1F
100
AcDbEntity
  8
0
100
AcDbLine
 10
-0.0000000000006845
 20
37.53310133215049
 30
-167.0
 11
-0.0000000000006845
 21
21.99999999999999
 31
-167.0
  0
LINE
  5
184
330
1F
100
AcDbEntity
  8
0
100
AcDbLine
 10
-0.0000000000006845
 20
-22.0
 30
-167.0
 11
-0.0000000000006845
 21
-37.5331013321505
 31
-167.0
  0
ARC
  5
185
330
1F
100
AcDbEntity
  8
0
100
AcDbCircle
 10
9.191497512553484
 20
149.4110619483529
 30
0.0
 40
311.4508359081387
210
-1.0
220
0.0
230
0.0
100
AcDbArc
 50
275.6566990285788
 51
315.2124047672158
  0
ARC
  5
186
330
1F
100
AcDbEntity
  8
0
100
AcDbCircle
 10
9.191497512553484
 20
149.4110619483529
 30
-43.87569144334157
 40
295.3075063438732
210
-1.0
220
0.0
230
0.0
100
AcDbArc
 50
270.3368366733137
 51
312.0131510181851
  0
ARC
  5
187
330
1F
100
AcDbEntity
  8
0
100
AcDbCircle
 10
-9.191497512553484
 20
149.4110619483529
 30
-43.88200847984081
 40
295.2901504287321
210
1.0
220
0.0
230
0.0
100
AcDbArc
 50
227.9905874968779
 51
269.6629917282511
  0
ARC
  5
188
330
1F
100
AcDbEntity
  8
0
100
AcDbCircle
 10
-0.0017791721197113
 20
125.0
 30
-35.0
 40
17.50000000000001
100
AcDbArc
 50
270.0
 51
89.99999999999999
  0
LINE
  5
189
330
1F
100
AcDbEntity
  8
0
100
AcDbLine
 10
17.4982208278803
 20
125.0
 30
-70.0
 11
17.4982208278803
 21
125.0
 31
-0.0000000000000136
  0
ARC
  5
18A
330
1F
100
AcDbEntity
  8
0
100
AcDbCircle
 10
0.0
 20
0.0
 30
110.7943456534881
 40
36.00715609119221
210
0.0
220
-6.123233995736757E-17
230
-1.0
100
AcDbArc
 50
90.0
 51
270.0
  0
LINE
  5
18B
330
1F
100
AcDbEntity
  8
0
100
AcDbLine
 10
36.00715609119221
 20
-0.0000000000000067
 30
-109.0822919595789
 11
36.00715609119221
 21
-0.0000000000000069
 31
-113.0
  0
LINE
  5
18C
330
1F
100
AcDbEntity
  8
0
100
AcDbLine
 10
0.0
 20
36.0071560911922
 30
-113.0
 11
0.0
 21
21.99999999999999
 31
-113.0
  0
LINE
  5
18D
330
1F
100
AcDbEntity
  8
0
100
AcDbLine
 10
0.0
 20
-22.0
 30
-113.0
 11
0.0
 21
-36.00715609119221
 31
-113.0
  0
LINE
  5
18E
330
1F
100
AcDbEntity
  8
0
100
AcDbLine
 10
-36.00715609119221
 20
-0.0000000000000034
 30
-113.0
 11
-22.0
 21
-0.0000000000000034
 31
-113.0
  0
LINE
  5
18F
330
1F
100
AcDbEntity
  8
0
100
AcDbLine
 10
22.0
 20
-0.0000000000000034
 30
-113.0
 11
36.00715609119221
 21
-0.0000000000000034
 31
-113.0
  0
ARC
  5
190
330
1F
100
AcDbEntity
  8
0
100
AcDbCircle
 10
25.00000000000001
 20
-26.8802689379416
 30
-225.5339868876721
 40
1.880268937941601
210
0.0
220
1.0
230
0.0
100
AcDbArc
 50
270.0
 51
0.0
  0
LINE
  5
191
330
1F
100
AcDbEntity
  8
0
100
AcDbLine
 10
-0.0000000000000071
 20
-221.1339991728958
 30
-28.76053787588319
 11
-0.0000000000000071
 21
-230.0000000000001
 31
-28.76053787588319
  0
LINE
  5
192
330
1F
100
AcDbEntity
  8
0
100
AcDbLine
 10
-25.00000000000001
 20
-225.5344016536229
 30
-28.76053787588319
 11
24.99999999999999
 21
-225.5344016536229
 31
-28.76053787588319
  0
ARC
  5
193
330
1F
100
AcDbEntity
  8
0
100
AcDbCircle
 10
-24.99999999999999
 20
-26.88026893794159
 30
-225.534604941209
 40
1.880268937941604
210
0.0
220
1.0
230
0.0
100
AcDbArc
 50
90.0
 51
270.0
  0
LINE
  5
194
330
1F
100
AcDbEntity
  8
0
100
AcDbLine
 10
26.8802689379416
 20
-230.0000000000001
 30
-26.88026893794159
 11
26.8802689379416
 21
-223.3076541925043
 31
-26.88026893794159
  0
LINE
  5
195
330
1F
100
AcDbEntity
  8
0
100
AcDbLine
 10
-25.0
 20
-227.7622191148033
 30
-24.99999999999999
 11
24.99999999999999
 21
-227.7622191148033
 31
-24.99999999999999
  0
LINE
  5
196
330
1F
100
AcDbEntity
  8
0
100
AcDbLine
 10
-0.0000000000000071
 20
-225.5788809519026
 30
-24.99999999999999
 11
-0.0000000000000071
 21
-230.0000000000001
 31
-24.99999999999999
  0
LINE
  5
197
330
1F
100
AcDbEntity
  8
0
100
AcDbLine
 10
26.88026893794159
 20
-230.0000000000001
 30
-26.88026893794159
 11
-26.88026893794161
 21
-230.0000000000001
 31
-26.88026893794159
  0
LINE
  5
198
330
1F
100
AcDbEntity
  8
0
100
AcDbLine
 10
-0.0000000000000036
 20
-230.0000000000001
 30
-28.7605378758832
 11
-0.0000000000000036
 21
-230.0000000000001
 31
-24.99999999999999
  0
ENDSEC
  0
SECTION
  2
OBJECTS
  0
DICTIONARY
  5
C
330
0
100
AcDbDictionary
281
     1
  3
ACAD_DETAILVIEWSTYLE
350
1D4
  3
ACAD_GROUP
350
D
  3
ACAD_LAYOUT
350
1A
  3
ACAD_MATERIAL
350
43
  3
ACAD_MLEADERSTYLE
350
6B
  3
ACAD_MLINESTYLE
350
17
  3
ACAD_PLOTSETTINGS
350
19
  3
ACAD_PLOTSTYLENAME
350
E
  3
ACAD_SCALELIST
350
47
  3
ACAD_SECTIONVIEWSTYLE
350
1D5
  3
ACAD_TABLESTYLE
350
69
  3
ACAD_VISUALSTYLE
350
2A
  3
ACDB_RECOMPOSE_DATA
350
1D1
  3
AcDbVariableDictionary
350
199
  0
SUN
  5
6D
330
29
100
AcDbSun
 90
        1
290
     0
 63
     7
421
 16777215
 40
1.0
291
     1
 91
  2455826
 92
 54000000
292
     0
 70
     2
 71
   256
280
     1
  0
DICTIONARY
  5
1D4
102
{ACAD_REACTORS
330
C
102
}
330
C
100
AcDbDictionary
281
     1
  0
DICTIONARY
  5
D
102
{ACAD_REACTORS
330
C
102
}
330
C
100
AcDbDictionary
281
     1
  0
DICTIONARY
  5
1A
102
{ACAD_REACTORS
330
C
102
}
330
C
100
AcDbDictionary
281
     1
  3
Layout1
350
1E
  3
Layout2
350
26
  3
Model
350
22
  0
DICTIONARY
  5
43
102
{ACAD_REACTORS
330
C
102
}
330
C
100
AcDbDictionary
281
     1
  3
ByBlock
350
45
  3
ByLayer
350
44
  3
Global
350
46
  0
DICTIONARY
  5
6B
102
{ACAD_REACTORS
330
C
102
}
330
C
100
AcDbDictionary
281
     1
  3
Standard
350
6C
  0
DICTIONARY
  5
17
102
{ACAD_REACTORS
330
C
102
}
330
C
100
AcDbDictionary
281
     1
  3
Standard
350
18
  0
DICTIONARY
  5
19
102
{ACAD_REACTORS
330
C
102
}
330
C
100
AcDbDictionary
281
     1
  0
ACDBDICTIONARYWDFLT
  5
E
102
{ACAD_REACTORS
330
C
102
}
330
C
100
AcDbDictionary
281
     1
  3
Normal
350
F
100
AcDbDictionaryWithDefault
340
F
  0
DICTIONARY
  5
47
102
{ACAD_REACTORS
330
C
102
}
330
C
100
AcDbDictionary
281
     1
  3
A0
350
48
  3
A1
350
49
  3
A2
350
4A
  3
A3
350
4B
  3
A4
350
4C
  3
A5
350
4D
  3
A6
350
4E
  3
A7
350
4F
  3
A8
350
50
  3
A9
350
51
  3
B0
350
52
  3
B1
350
53
  3
B2
350
54
  3
B3
350
55
  3
B4
350
56
  3
B5
350
57
  3
B6
350
58
  3
B7
350
59
  3
B8
350
5A
  3
B9
350
5B
  3
C0
350
5C
  3
C1
350
5D
  3
C2
350
5E
  3
C3
350
5F
  3
C4
350
60
  3
C5
350
61
  3
C6
350
62
  3
C7
350
63
  3
C8
350
64
  3
C9
350
65
  3
D0
350
66
  3
D1
350
67
  3
D2
350
68
  0
DICTIONARY
  5
1D5
102
{ACAD_REACTORS
330
C
102
}
330
C
100
AcDbDictionary
281
     1
  0
DICTIONARY
  5
69
102
{ACAD_REACTORS
330
C
102
}
330
C
100
AcDbDictionary
281
     1
  3
Standard
350
6A
  0
DICTIONARY
  5
2A
102
{ACAD_REACTORS
330
C
102
}
330
C
100
AcDbDictionary
281
     1
  3
2dWireframe
350
2F
  3
Basic
350
32
  3
Brighten
350
36
  3
ColorChange
350
3A
  3
Conceptual
350
34
  3
Dim
350
35
  3
EdgeColorOff
350
3D
  3
Facepattern
350
39
  3
Flat
350
2B
  3
FlatWithEdges
350
2C
  3
Gouraud
350
2D
  3
GouraudWithEdges
350
2E
  3
Hidden
350
31
  3
JitterOff
350
3B
  3
Linepattern
350
38
  3
OverhangOff
350
3C
  3
Realistic
350
33
  3
Shaded
350
42
  3
Shaded with edges
350
41
  3
Shades of Gray
350
3E
  3
Sketchy
350
3F
  3
Thicken
350
37
  3
Wireframe
350
30
  3
X-Ray
350
40
  0
XRECORD
  5
1D1
102
{ACAD_REACTORS
330
C
102
}
330
C
100
AcDbXrecord
280
     1
 90
        1
330
6A
  0
DICTIONARY
  5
199
102
{ACAD_REACTORS
330
C
102
}
330
C
100
AcDbDictionary
281
     1
  3
CANNOSCALE
350
19A
  3
CMLEADERSTYLE
350
1D3
  3
CTABLESTYLE
350
1D2
  3
XCLIPFRAME
350
19B
  0
LAYOUT
  5
1E
102
{ACAD_REACTORS
330
1A
102
}
330
1A
100
AcDbPlotSettings
  1

  2
none_device
  4

  6

 40
0.0
 41
0.0
 42
0.0
 43
0.0
 44
0.0
 45
0.0
 46
0.0
 47
0.0
 48
0.0
 49
0.0
140
0.0
141
0.0
142
1.0
143
1.0
 70
   688
 72
     0
 73
     0
 74
     5
  7

 75
    16
 76
     0
 77
     2
 78
   300
147
1.0
148
0.0
149
0.0
100
AcDbLayout
  1
Layout1
 70
     1
 71
     1
 10
0.0
 20
0.0
 11
12.0
 21
9.0
 12
0.0
 22
0.0
 32
0.0
 14
1.000000000000000E+20
 24
1.000000000000000E+20
 34
1.000000000000000E+20
 15
-1.000000000000000E+20
 25
-1.000000000000000E+20
 35
-1.000000000000000E+20
146
0.0
 13
0.0
 23
0.0
 33
0.0
 16
1.0
 26
0.0
 36
0.0
 17
0.0
 27
1.0
 37
0.0
 76
     0
330
1B
  0
LAYOUT
  5
26
102
{ACAD_REACTORS
330
1A
102
}
330
1A
100
AcDbPlotSettings
  1

  2
none_device
  4

  6

 40
0.0
 41
0.0
 42
0.0
 43
0.0
 44
0.0
 45
0.0
 46
0.0
 47
0.0
 48
0.0
 49
0.0
140
0.0
141
0.0
142
1.0
143
1.0
 70
   688
 72
     0
 73
     0
 74
     5
  7

 75
    16
 76
     0
 77
     2
 78
   300
147
1.0
148
0.0
149
0.0
100
AcDbLayout
  1
Layout2
 70
     1
 71
     2
 10
0.0
 20
0.0
 11
0.0
 21
0.0
 12
0.0
 22
0.0
 32
0.0
 14
0.0
 24
0.0
 34
0.0
 15
0.0
 25
0.0
 35
0.0
146
0.0
 13
0.0
 23
0.0
 33
0.0
 16
1.0
 26
0.0
 36
0.0
 17
0.0
 27
1.0
 37
0.0
 76
     0
330
23
  0
LAYOUT
  5
22
102
{ACAD_REACTORS
330
1A
102
}
330
1A
100
AcDbPlotSettings
  1

  2
none_device
  4
Letter_(8.50_x_11.00_Inches)
  6

 40
6.35
 41
6.35
 42
6.35000508
 43
6.35000508
 44
215.9
 45
279.4
 46
0.0
 47
0.0
 48
0.0
 49
0.0
140
0.0
141
0.0
142
1.0
143
1.0
 70
  1712
 72
     0
 73
     0
 74
     0
  7

 75
     0
 76
     0
 77
     2
 78
   300
147
1.0
148
0.0
149
0.0
100
AcDbLayout
  1
Model
 70
     1
 71
     0
 10
0.0
 20
0.0
 11
12.0
 21
9.0
 12
0.0
 22
0.0
 32
0.0
 14
1.000000000000000E+20
 24
1.000000000000000E+20
 34
1.000000000000000E+20
 15
-1.000000000000000E+20
 25
-1.000000000000000E+20
 35
-1.000000000000000E+20
146
0.0
 13
0.0
 23
0.0
 33
0.0
 16
1.0
 26
0.0
 36
0.0
 17
0.0
 27
1.0
 37
0.0
 76
     0
330
1F
331
29
  0
MATERIAL
  5
45
102
{ACAD_REACTORS
330
43
102
}
330
43
100
AcDbMaterial
  1
ByBlock
 72
     1
 94
      127
  0
MATERIAL
  5
44
102
{ACAD_REACTORS
330
43
102
}
330
43
100
AcDbMaterial
  1
ByLayer
 72
     1
 94
      127
  0
MATERIAL
  5
46
102
{ACAD_REACTORS
330
43
102
}
330
43
100
AcDbMaterial
  1
Global
 72
     1
 94
      127
  0
MLEADERSTYLE
  5
6C
102
{ACAD_REACTORS
330
6B
102
}
102
{ACAD_XDICTIONARY
360
1CF
102
}
330
6B
100
AcDbMLeaderStyle
170
     2
171
     1
172
     0
 90
        2
 40
0.0
 41
0.0
173
     1
 91
-1056964608
340
14
 92
       -2
290
     1
 42
0.09
291
     1
 43
0.36
  3
Standard
341
0
 44
0.18
300

342
11
174
     1
178
     6
175
     1
176
     0
 93
-1056964608
 45
0.18
292
     0
297
     0
 46
0.18
343
0
 94
-1056964608
 47
1.0
 49
1.0
140
1.0
293
     1
141
0.0
294
     1
177
     0
142
1.0
295
     0
296
     0
143
0.125
1001
ACAD_MLEADERVER
1070
     2
  0
MLINESTYLE
  5
18
102
{ACAD_REACTORS
330
17
102
}
330
17
100
AcDbMlineStyle
  2
Standard
 70
     0
  3

 62
   256
 51
90.0
 52
90.0
 71
     2
 49
0.5
 62
   256
  6
BYLAYER
 49
-0.5
 62
   256
  6
BYLAYER
  0
ACDBPLACEHOLDER
  5
F
102
{ACAD_REACTORS
330
E
102
}
330
E
  0
SCALE
  5
48
102
{ACAD_REACTORS
330
47
102
}
330
47
100
AcDbScale
 70
     0
300
1:1
140
1.0
141
1.0
290
     1
  0
SCALE
  5
49
102
{ACAD_REACTORS
330
47
102
}
330
47
100
AcDbScale
 70
     0
300
1:2
140
1.0
141
2.0
290
     0
  0
SCALE
  5
4A
102
{ACAD_REACTORS
330
47
102
}
330
47
100
AcDbScale
 70
     0
300
1:4
140
1.0
141
4.0
290
     0
  0
SCALE
  5
4B
102
{ACAD_REACTORS
330
47
102
}
330
47
100
AcDbScale
 70
     0
300
1:5
140
1.0
141
5.0
290
     0
  0
SCALE
  5
4C
102
{ACAD_REACTORS
330
47
102
}
330
47
100
AcDbScale
 70
     0
300
1:8
140
1.0
141
8.0
290
     0
  0
SCALE
  5
4D
102
{ACAD_REACTORS
330
47
102
}
330
47
100
AcDbScale
 70
     0
300
1:10
140
1.0
141
10.0
290
     0
  0
SCALE
  5
4E
102
{ACAD_REACTORS
330
47
102
}
330
47
100
AcDbScale
 70
     0
300
1:16
140
1.0
141
16.0
290
     0
  0
SCALE
  5
4F
102
{ACAD_REACTORS
330
47
102
}
330
47
100
AcDbScale
 70
     0
300
1:20
140
1.0
141
20.0
290
     0
  0
SCALE
  5
50
102
{ACAD_REACTORS
330
47
102
}
330
47
100
AcDbScale
 70
     0
300
1:30
140
1.0
141
30.0
290
     0
  0
SCALE
  5
51
102
{ACAD_REACTORS
330
47
102
}
330
47
100
AcDbScale
 70
     0
300
1:40
140
1.0
141
40.0
290
     0
  0
SCALE
  5
52
102
{ACAD_REACTORS
330
47
102
}
330
47
100
AcDbScale
 70
     0
300
1:50
140
1.0
141
50.0
290
     0
  0
SCALE
  5
53
102
{ACAD_REACTORS
330
47
102
}
330
47
100
AcDbScale
 70
     0
300
1:100
140
1.0
141
100.0
290
     0
  0
SCALE
  5
54
102
{ACAD_REACTORS
330
47
102
}
330
47
100
AcDbScale
 70
     0
300
2:1
140
2.0
141
1.0
290
     0
  0
SCALE
  5
55
102
{ACAD_REACTORS
330
47
102
}
330
47
100
AcDbScale
 70
     0
300
4:1
140
4.0
141
1.0
290
     0
  0
SCALE
  5
56
102
{ACAD_REACTORS
330
47
102
}
330
47
100
AcDbScale
 70
     0
300
8:1
140
8.0
141
1.0
290
     0
  0
SCALE
  5
57
102
{ACAD_REACTORS
330
47
102
}
330
47
100
AcDbScale
 70
     0
300
10:1
140
10.0
141
1.0
290
     0
  0
SCALE
  5
58
102
{ACAD_REACTORS
330
47
102
}
330
47
100
AcDbScale
 70
     0
300
100:1
140
100.0
141
1.0
290
     0
  0
SCALE
  5
59
102
{ACAD_REACTORS
330
47
102
}
330
47
100
AcDbScale
 70
     0
300
1/128" = 1'-0"
140
0.0078125
141
12.0
290
     0
  0
SCALE
  5
5A
102
{ACAD_REACTORS
330
47
102
}
330
47
100
AcDbScale
 70
     0
300
1/64" = 1'-0"
140
0.015625
141
12.0
290
     0
  0
SCALE
  5
5B
102
{ACAD_REACTORS
330
47
102
}
330
47
100
AcDbScale
 70
     0
300
1/32" = 1'-0"
140
0.03125
141
12.0
290
     0
  0
SCALE
  5
5C
102
{ACAD_REACTORS
330
47
102
}
330
47
100
AcDbScale
 70
     0
300
1/16" = 1'-0"
140
0.0625
141
12.0
290
     0
  0
SCALE
  5
5D
102
{ACAD_REACTORS
330
47
102
}
330
47
100
AcDbScale
 70
     0
300
3/32" = 1'-0"
140
0.09375
141
12.0
290
     0
  0
SCALE
  5
5E
102
{ACAD_REACTORS
330
47
102
}
330
47
100
AcDbScale
 70
     0
300
1/8" = 1'-0"
140
0.125
141
12.0
290
     0
  0
SCALE
  5
5F
102
{ACAD_REACTORS
330
47
102
}
330
47
100
AcDbScale
 70
     0
300
3/16" = 1'-0"
140
0.1875
141
12.0
290
     0
  0
SCALE
  5
60
102
{ACAD_REACTORS
330
47
102
}
330
47
100
AcDbScale
 70
     0
300
1/4" = 1'-0"
140
0.25
141
12.0
290
     0
  0
SCALE
  5
61
102
{ACAD_REACTORS
330
47
102
}
330
47
100
AcDbScale
 70
     0
300
3/8" = 1'-0"
140
0.375
141
12.0
290
     0
  0
SCALE
  5
62
102
{ACAD_REACTORS
330
47
102
}
330
47
100
AcDbScale
 70
     0
300
1/2" = 1'-0"
140
0.5
141
12.0
290
     0
  0
SCALE
  5
63
102
{ACAD_REACTORS
330
47
102
}
330
47
100
AcDbScale
 70
     0
300
3/4" = 1'-0"
140
0.75
141
12.0
290
     0
  0
SCALE
  5
64
102
{ACAD_REACTORS
330
47
102
}
330
47
100
AcDbScale
 70
     0
300
1" = 1'-0"
140
1.0
141
12.0
290
     0
  0
SCALE
  5
65
102
{ACAD_REACTORS
330
47
102
}
330
47
100
AcDbScale
 70
     0
300
1-1/2" = 1'-0"
140
1.5
141
12.0
290
     0
  0
SCALE
  5
66
102
{ACAD_REACTORS
330
47
102
}
330
47
100
AcDbScale
 70
     0
300
3" = 1'-0"
140
3.0
141
12.0
290
     0
  0
SCALE
  5
67
102
{ACAD_REACTORS
330
47
102
}
330
47
100
AcDbScale
 70
     0
300
6" = 1'-0"
140
6.0
141
12.0
290
     0
  0
SCALE
  5
68
102
{ACAD_REACTORS
330
47
102
}
330
47
100
AcDbScale
 70
     0
300
1'-0" = 1'-0"
140
12.0
141
12.0
290
     0
  0
TABLESTYLE
  5
6A
102
{ACAD_REACTORS
330
69
102
}
102
{ACAD_XDICTIONARY
360
1CC
102
}
330
69
100
AcDbTableStyle
  3
Standard
 70
     0
 71
     0
 40
0.06
 41
0.06
280
     0
281
     0
  7
Standard
140
0.18
170
     2
 62
     0
 63
   257
283
     0
 90
        4
 91
        0
  1

274
    -2
284
     1
 64
     0
275
    -2
285
     1
 65
     0
276
    -2
286
     1
 66
     0
277
    -2
287
     1
 67
     0
278
    -2
288
     1
 68
     0
279
    -2
289
     1
 69
     0
  7
Standard
140
0.25
170
     5
 62
     0
 63
   257
283
     0
 90
        4
 91
        0
  1

274
    -2
284
     1
 64
     0
275
    -2
285
     1
 65
     0
276
    -2
286
     1
 66
     0
277
    -2
287
     1
 67
     0
278
    -2
288
     1
 68
     0
279
    -2
289
     1
 69
     0
  7
Standard
140
0.18
170
     5
 62
     0
 63
   257
283
     0
 90
        4
 91
        0
  1

274
    -2
284
     1
 64
     0
275
    -2
285
     1
 65
     0
276
    -2
286
     1
 66
     0
277
    -2
287
     1
 67
     0
278
    -2
288
     1
 68
     0
279
    -2
289
     1
 69
     0
  0
VISUALSTYLE
  5
2F
102
{ACAD_REACTORS
330
2A
102
}
102
{ACAD_XDICTIONARY
360
1A4
102
}
330
2A
100
AcDbVisualStyle
  2
2dWireframe
 70
     4
 71
     0
 72
     2
 73
     0
 90
        0
 40
0.6
 41
30.0
 62
     5
 63
     7
421
 16777215
 74
     1
 91
        4
 64
     7
 65
   257
 75
     1
175
     1
 42
1.0
 92
        0
 66
   257
 43
1.0
 76
     1
 77
     6
 78
     2
 67
     7
 79
     5
170
     0
171
     0
290
     0
174
     0
 93
        1
 44
0.0
173
     0
291
     0
 45
0.0
  0
VISUALSTYLE
  5
32
102
{ACAD_REACTORS
330
2A
102
}
102
{ACAD_XDICTIONARY
360
1AA
102
}
330
2A
100
AcDbVisualStyle
  2
Basic
 70
     7
 71
     1
 72
     0
 73
     1
 90
        0
 40
0.6
 41
30.0
 62
     5
 63
     7
421
 16777215
 74
     0
 91
        4
 64
     7
 65
   257
 75
     1
175
     1
 42
1.0
 92
        8
 66
     7
 43
1.0
 76
     1
 77
     6
 78
     2
 67
     7
 79
     5
170
     0
171
     0
290
     0
174
     0
 93
        1
 44
0.0
173
     0
291
     1
 45
0.0
  0
VISUALSTYLE
  5
36
102
{ACAD_REACTORS
330
2A
102
}
102
{ACAD_XDICTIONARY
360
1B2
102
}
330
2A
100
AcDbVisualStyle
  2
Brighten
 70
    12
 71
     2
 72
     2
 73
     0
 90
        0
 40
0.6
 41
30.0
 62
     5
 63
     7
421
 16777215
 74
     1
 91
        4
 64
     7
 65
   257
 75
     1
175
     1
 42
1.0
 92
        8
 66
     7
 43
1.0
 76
     1
 77
     6
 78
     2
 67
     7
 79
     5
170
     0
171
     0
290
     0
174
     0
 93
        1
 44
50.0
173
     0
291
     1
 45
0.0
  0
VISUALSTYLE
  5
3A
102
{ACAD_REACTORS
330
2A
102
}
102
{ACAD_XDICTIONARY
360
1BA
102
}
330
2A
100
AcDbVisualStyle
  2
ColorChange
 70
    16
 71
     2
 72
     2
 73
     3
 90
        0
 40
0.6
 41
30.0
 62
     5
 63
     8
421
  8421504
 74
     1
 91
        4
 64
     7
 65
   257
 75
     1
175
     1
 42
1.0
 92
        8
 66
     8
424
  8421504
 43
1.0
 76
     1
 77
     6
 78
     2
 67
     7
 79
     5
170
     0
171
     0
290
     0
174
     0
 93
        1
 44
0.0
173
     0
291
     1
 45
0.0
  0
VISUALSTYLE
  5
34
102
{ACAD_REACTORS
330
2A
102
}
102
{ACAD_XDICTIONARY
360
1AE
102
}
330
2A
100
AcDbVisualStyle
  2
Conceptual
 70
     9
 71
     3
 72
     2
 73
     0
 90
        0
 40
0.6
 41
30.0
 62
     5
 63
     7
421
 16777215
 74
     2
 91
        2
 64
     7
 65
   257
 75
     1
175
     1
 42
179.0
 92
        8
 66
     7
 43
1.0
 76
     1
 77
     6
 78
     2
 67
     7
 79
     3
170
     0
171
     0
290
     0
174
     0
 93
        1
 44
0.0
173
     0
291
     0
 45
0.0
  0
VISUALSTYLE
  5
35
102
{ACAD_REACTORS
330
2A
102
}
102
{ACAD_XDICTIONARY
360
1B0
102
}
330
2A
100
AcDbVisualStyle
  2
Dim
 70
    11
 71
     2
 72
     2
 73
     0
 90
        0
 40
0.6
 41
30.0
 62
     5
 63
     7
421
 16777215
 74
     1
 91
        4
 64
     7
 65
   257
 75
     1
175
     1
 42
1.0
 92
        8
 66
     7
 43
1.0
 76
     1
 77
     6
 78
     2
 67
     7
 79
     5
170
     0
171
     0
290
     0
174
     0
 93
        1
 44
-50.0
173
     0
291
     1
 45
0.0
  0
VISUALSTYLE
  5
3D
102
{ACAD_REACTORS
330
2A
102
}
102
{ACAD_XDICTIONARY
360
1C0
102
}
330
2A
100
AcDbVisualStyle
  2
EdgeColorOff
 70
    22
 71
     2
 72
     2
 73
     0
 90
        0
 40
0.6
 41
30.0
 62
     5
 63
     7
421
 16777215
 74
     1
 91
        4
 64
     7
 65
   257
 75
     1
175
     1
 42
1.0
 92
        8
 66
     7
 43
1.0
 76
     1
 77
     6
 78
     2
 67
     7
 79
     5
170
     0
171
     0
290
     0
174
     0
 93
        1
 44
0.0
173
     0
291
     1
 45
0.0
  0
VISUALSTYLE
  5
39
102
{ACAD_REACTORS
330
2A
102
}
102
{ACAD_XDICTIONARY
360
1B8
102
}
330
2A
100
AcDbVisualStyle
  2
Facepattern
 70
    15
 71
     2
 72
     2
 73
     0
 90
        0
 40
0.6
 41
30.0
 62
     5
 63
     7
421
 16777215
 74
     1
 91
        4
 64
     7
 65
   257
 75
     1
175
     1
 42
1.0
 92
        8
 66
     7
 43
1.0
 76
     1
 77
     6
 78
     2
 67
     7
 79
     5
170
     0
171
     0
290
     0
174
     0
 93
        1
 44
0.0
173
     0
291
     1
 45
0.0
  0
VISUALSTYLE
  5
2B
102
{ACAD_REACTORS
330
2A
102
}
102
{ACAD_XDICTIONARY
360
19C
102
}
330
2A
100
AcDbVisualStyle
  2
Flat
 70
     0
 71
     2
 72
     1
 73
     1
 90
        2
 40
0.6
 41
30.0
 62
     5
 63
     7
421
 16777215
 74
     0
 91
        0
 64
     7
 65
   257
 75
     1
175
     1
 42
1.0
 92
        8
 66
     7
 43
1.0
 76
     1
 77
     6
 78
     2
 67
     7
 79
     5
170
     0
171
     0
290
     0
174
     0
 93
       13
 44
0.0
173
     0
291
     1
 45
0.0
  0
VISUALSTYLE
  5
2C
102
{ACAD_REACTORS
330
2A
102
}
102
{ACAD_XDICTIONARY
360
19E
102
}
330
2A
100
AcDbVisualStyle
  2
FlatWithEdges
 70
     1
 71
     2
 72
     1
 73
     1
 90
        2
 40
0.6
 41
30.0
 62
     5
 63
     7
421
 16777215
 74
     1
 91
        0
 64
     7
 65
   257
 75
     1
175
     1
 42
1.0
 92
        0
 66
   257
 43
1.0
 76
     1
 77
     6
 78
     2
 67
     7
 79
     5
170
     0
171
     0
290
     0
174
     0
 93
       13
 44
0.0
173
     0
291
     1
 45
0.0
  0
VISUALSTYLE
  5
2D
102
{ACAD_REACTORS
330
2A
102
}
102
{ACAD_XDICTIONARY
360
1A0
102
}
330
2A
100
AcDbVisualStyle
  2
Gouraud
 70
     2
 71
     2
 72
     2
 73
     1
 90
        2
 40
0.6
 41
30.0
 62
     5
 63
     7
421
 16777215
 74
     0
 91
        0
 64
     7
 65
   257
 75
     1
175
     1
 42
1.0
 92
        0
 66
     7
 43
1.0
 76
     1
 77
     6
 78
     2
 67
     7
 79
     5
170
     0
171
     0
290
     0
174
     0
 93
       13
 44
0.0
173
     0
291
     1
 45
0.0
  0
VISUALSTYLE
  5
2E
102
{ACAD_REACTORS
330
2A
102
}
102
{ACAD_XDICTIONARY
360
1A2
102
}
330
2A
100
AcDbVisualStyle
  2
GouraudWithEdges
 70
     3
 71
     2
 72
     2
 73
     1
 90
        2
 40
0.6
 41
30.0
 62
     5
 63
     7
421
 16777215
 74
     1
 91
        0
 64
     7
 65
   257
 75
     1
175
     1
 42
1.0
 92
        0
 66
   257
 43
1.0
 76
     1
 77
     6
 78
     2
 67
     7
 79
     5
170
     0
171
     0
290
     0
174
     0
 93
       13
 44
0.0
173
     0
291
     1
 45
0.0
  0
VISUALSTYLE
  5
31
102
{ACAD_REACTORS
330
2A
102
}
102
{ACAD_XDICTIONARY
360
1A8
102
}
330
2A
100
AcDbVisualStyle
  2
Hidden
 70
     6
 71
     1
 72
     2
 73
     2
 90
        0
 40
0.6
 41
30.0
 62
     5
 63
     7
421
 16777215
 74
     2
 91
        2
 64
     7
 65
   257
 75
     2
175
     1
 42
40.0
 92
        0
 66
   257
 43
1.0
 76
     1
 77
     6
 78
     2
 67
     7
 79
     3
170
     0
171
     0
290
     0
174
     0
 93
        1
 44
0.0
173
     0
291
     0
 45
0.0
  0
VISUALSTYLE
  5
3B
102
{ACAD_REACTORS
330
2A
102
}
102
{ACAD_XDICTIONARY
360
1BC
102
}
330
2A
100
AcDbVisualStyle
  2
JitterOff
 70
    20
 71
     2
 72
     2
 73
     0
 90
        0
 40
0.6
 41
30.0
 62
     5
 63
     7
421
 16777215
 74
     1
 91
        4
 64
     7
 65
   257
 75
     1
175
     1
 42
1.0
 92
       10
 66
     7
 43
1.0
 76
     1
 77
     6
 78
     2
 67
     7
 79
     5
170
     0
171
     0
290
     0
174
     0
 93
        1
 44
0.0
173
     0
291
     1
 45
0.0
  0
VISUALSTYLE
  5
38
102
{ACAD_REACTORS
330
2A
102
}
102
{ACAD_XDICTIONARY
360
1B6
102
}
330
2A
100
AcDbVisualStyle
  2
Linepattern
 70
    14
 71
     2
 72
     2
 73
     0
 90
        0
 40
0.6
 41
30.0
 62
     5
 63
     7
421
 16777215
 74
     1
 91
        4
 64
     7
 65
   257
 75
     7
175
     7
 42
1.0
 92
        8
 66
     7
 43
1.0
 76
     1
 77
     6
 78
     2
 67
     7
 79
     5
170
     0
171
     0
290
     0
174
     0
 93
        1
 44
0.0
173
     0
291
     1
 45
0.0
  0
VISUALSTYLE
  5
3C
102
{ACAD_REACTORS
330
2A
102
}
102
{ACAD_XDICTIONARY
360
1BE
102
}
330
2A
100
AcDbVisualStyle
  2
OverhangOff
 70
    21
 71
     2
 72
     2
 73
     0
 90
        0
 40
0.6
 41
30.0
 62
     5
 63
     7
421
 16777215
 74
     1
 91
        4
 64
     7
 65
   257
 75
     1
175
     1
 42
1.0
 92
        9
 66
     7
 43
1.0
 76
     1
 77
     6
 78
     2
 67
     7
 79
     5
170
     0
171
     0
290
     0
174
     0
 93
        1
 44
0.0
173
     0
291
     1
 45
0.0
  0
VISUALSTYLE
  5
33
102
{ACAD_REACTORS
330
2A
102
}
102
{ACAD_XDICTIONARY
360
1AC
102
}
330
2A
100
AcDbVisualStyle
  2
Realistic
 70
     8
 71
     2
 72
     3
 73
     0
 90
        2
 40
0.6
 41
30.0
 62
     5
 63
     7
421
 16777215
 74
     0
 91
        0
 64
     7
 65
   257
 75
     1
175
     1
 42
1.0
 92
        8
 66
   257
 43
1.0
 76
     1
 77
     6
 78
     2
 67
     7
 79
     3
170
     0
171
     0
290
     0
174
     0
 93
       13
 44
0.0
173
     0
291
     0
 45
0.0
  0
VISUALSTYLE
  5
42
102
{ACAD_REACTORS
330
2A
102
}
102
{ACAD_XDICTIONARY
360
1CA
102
}
330
2A
100
AcDbVisualStyle
  2
Shaded
 70
    27
 71
     2
 72
     2
 73
     1
 90
        2
 40
0.6
 41
30.0
 62
     5
 63
     7
421
 16777215
 74
     0
 91
        4
 64
     7
 65
   257
 75
     1
175
     1
 42
1.0
 92
        8
 66
   257
 43
1.0
 76
     1
 77
     6
 78
     2
 67
     8
425
  7895160
 79
     3
170
     0
171
     0
290
     0
174
     0
 93
        5
 44
0.0
173
     0
291
     0
 45
0.0
  0
VISUALSTYLE
  5
41
102
{ACAD_REACTORS
330
2A
102
}
102
{ACAD_XDICTIONARY
360
1C8
102
}
330
2A
100
AcDbVisualStyle
  2
Shaded with edges
 70
    26
 71
     2
 72
     2
 73
     1
 90
        2
 40
0.6
 41
30.0
 62
     5
 63
     7
421
 16777215
 74
     1
 91
       10
 64
     7
 65
   257
 75
     2
175
     1
 42
1.0
 92
        8
 66
   257
 43
1.0
 76
     1
 77
     6
 78
     2
 67
     7
 79
     3
170
     0
171
     0
290
     0
174
     0
 93
        5
 44
0.0
173
     0
291
     0
 45
0.0
  0
VISUALSTYLE
  5
3E
102
{ACAD_REACTORS
330
2A
102
}
102
{ACAD_XDICTIONARY
360
1C2
102
}
330
2A
100
AcDbVisualStyle
  2
Shades of Gray
 70
    23
 71
     2
 72
     2
 73
     3
 90
        0
 40
0.6
 41
30.0
 62
     5
 63
     7
421
 16777215
 74
     2
 91
        2
 64
     7
 65
     7
 75
     1
175
     1
 42
40.0
 92
        8
 66
     7
 43
1.0
 76
     1
 77
     6
 78
     2
 67
     7
 79
     3
170
     0
171
     0
290
     0
174
     0
 93
        1
 44
0.0
173
     0
291
     0
 45
0.0
  0
VISUALSTYLE
  5
3F
102
{ACAD_REACTORS
330
2A
102
}
102
{ACAD_XDICTIONARY
360
1C4
102
}
330
2A
100
AcDbVisualStyle
  2
Sketchy
 70
    24
 71
     1
 72
     2
 73
     2
 90
        0
 40
0.6
 41
30.0
 62
     5
 63
     7
421
 16777215
 74
     2
 91
        2
 64
     7
 65
     7
 75
     1
175
     1
 42
40.0
 92
       11
 66
     7
 43
1.0
 76
     1
 77
     6
 78
     2
 67
     7
 79
     6
170
     0
171
     0
290
     0
174
     0
 93
        1
 44
0.0
173
     0
291
     0
 45
0.0
  0
VISUALSTYLE
  5
37
102
{ACAD_REACTORS
330
2A
102
}
102
{ACAD_XDICTIONARY
360
1B4
102
}
330
2A
100
AcDbVisualStyle
  2
Thicken
 70
    13
 71
     2
 72
     2
 73
     0
 90
        0
 40
0.6
 41
30.0
 62
     5
 63
     7
421
 16777215
 74
     1
 91
        4
 64
     7
 65
   257
 75
     1
175
     1
 42
1.0
 92
       12
 66
     7
 43
1.0
 76
     1
 77
     6
 78
     2
 67
     7
 79
     5
170
     0
171
     0
290
     0
174
     0
 93
        1
 44
0.0
173
     0
291
     1
 45
0.0
  0
VISUALSTYLE
  5
30
102
{ACAD_REACTORS
330
2A
102
}
102
{ACAD_XDICTIONARY
360
1A6
102
}
330
2A
100
AcDbVisualStyle
  2
Wireframe
 70
     5
 71
     0
 72
     2
 73
     0
 90
        0
 40
0.6
 41
30.0
 62
     5
 63
     7
421
 16777215
 74
     1
 91
        4
 64
     7
 65
   257
 75
     1
175
     1
 42
1.0
 92
        0
 66
   257
 43
1.0
 76
     1
 77
     6
 78
     2
 67
     7
 79
     3
170
     0
171
     0
290
     0
174
     0
 93
        1
 44
0.0
173
     0
291
     0
 45
0.0
  0
VISUALSTYLE
  5
40
102
{ACAD_REACTORS
330
2A
102
}
102
{ACAD_XDICTIONARY
360
1C6
102
}
330
2A
100
AcDbVisualStyle
  2
X-Ray
 70
    25
 71
     2
 72
     2
 73
     1
 90
        1
 40
0.5
 41
30.0
 62
     5
 63
     7
421
 16777215
 74
     1
 91
        0
 64
     7
 65
   257
 75
     1
175
     1
 42
1.0
 92
        8
 66
     7
 43
1.0
 76
     1
 77
     6
 78
     2
 67
     7
 79
     3
170
     0
171
     0
290
     0
174
     0
 93
       13
 44
0.0
173
     0
291
     0
 45
0.0
  0
DICTIONARYVAR
  5
19A
102
{ACAD_REACTORS
330
199
102
}
330
199
100
DictionaryVariables
280
     0
  1
1:1
  0
DICTIONARYVAR
  5
1D3
102
{ACAD_REACTORS
330
199
102
}
330
199
100
DictionaryVariables
280
     0
  1
Standard
  0
DICTIONARYVAR
  5
1D2
102
{ACAD_REACTORS
330
199
102
}
330
199
100
DictionaryVariables
280
     0
  1
Standard
  0
DICTIONARYVAR
  5
19B
102
{ACAD_REACTORS
330
199
102
}
330
199
100
DictionaryVariables
280
     0
  1
2
  0
DICTIONARY
  5
1CF
330
6C
100
AcDbDictionary
280
     1
281
     1
  3
ACAD_XREC_ROUNDTRIP
360
1D0
  0
DICTIONARY
  5
1CC
330
6A
100
AcDbDictionary
280
     1
281
     1
  3
ACAD_ROUNDTRIP_2008_TABLESTYLE_CELLSTYLEMAP
360
1CD
  0
DICTIONARY
  5
1A4
330
2F
100
AcDbDictionary
280
     1
281
     1
  3
ACAD_XREC_ROUNDTRIP
360
1A5
  0
DICTIONARY
  5
1AA
330
32
100
AcDbDictionary
280
     1
281
     1
  3
ACAD_XREC_ROUNDTRIP
360
1AB
  0
DICTIONARY
  5
1B2
330
36
100
AcDbDictionary
280
     1
281
     1
  3
ACAD_XREC_ROUNDTRIP
360
1B3
  0
DICTIONARY
  5
1BA
330
3A
100
AcDbDictionary
280
     1
281
     1
  3
ACAD_XREC_ROUNDTRIP
360
1BB
  0
DICTIONARY
  5
1AE
330
34
100
AcDbDictionary
280
     1
281
     1
  3
ACAD_XREC_ROUNDTRIP
360
1AF
  0
DICTIONARY
  5
1B0
330
35
100
AcDbDictionary
280
     1
281
     1
  3
ACAD_XREC_ROUNDTRIP
360
1B1
  0
DICTIONARY
  5
1C0
330
3D
100
AcDbDictionary
280
     1
281
     1
  3
ACAD_XREC_ROUNDTRIP
360
1C1
  0
DICTIONARY
  5
1B8
330
39
100
AcDbDictionary
280
     1
281
     1
  3
ACAD_XREC_ROUNDTRIP
360
1B9
  0
DICTIONARY
  5
19C
330
2B
100
AcDbDictionary
280
     1
281
     1
  3
ACAD_XREC_ROUNDTRIP
360
19D
  0
DICTIONARY
  5
19E
330
2C
100
AcDbDictionary
280
     1
281
     1
  3
ACAD_XREC_ROUNDTRIP
360
19F
  0
DICTIONARY
  5
1A0
330
2D
100
AcDbDictionary
280
     1
281
     1
  3
ACAD_XREC_ROUNDTRIP
360
1A1
  0
DICTIONARY
  5
1A2
330
2E
100
AcDbDictionary
280
     1
281
     1
  3
ACAD_XREC_ROUNDTRIP
360
1A3
  0
DICTIONARY
  5
1A8
330
31
100
AcDbDictionary
280
     1
281
     1
  3
ACAD_XREC_ROUNDTRIP
360
1A9
  0
DICTIONARY
  5
1BC
330
3B
100
AcDbDictionary
280
     1
281
     1
  3
ACAD_XREC_ROUNDTRIP
360
1BD
  0
DICTIONARY
  5
1B6
330
38
100
AcDbDictionary
280
     1
281
     1
  3
ACAD_XREC_ROUNDTRIP
360
1B7
  0
DICTIONARY
  5
1BE
330
3C
100
AcDbDictionary
280
     1
281
     1
  3
ACAD_XREC_ROUNDTRIP
360
1BF
  0
DICTIONARY
  5
1AC
330
33
100
AcDbDictionary
280
     1
281
     1
  3
ACAD_XREC_ROUNDTRIP
360
1AD
  0
DICTIONARY
  5
1CA
330
42
100
AcDbDictionary
280
     1
281
     1
  3
ACAD_XREC_ROUNDTRIP
360
1CB
  0
DICTIONARY
  5
1C8
330
41
100
AcDbDictionary
280
     1
281
     1
  3
ACAD_XREC_ROUNDTRIP
360
1C9
  0
DICTIONARY
  5
1C2
330
3E
100
AcDbDictionary
280
     1
281
     1
  3
ACAD_XREC_ROUNDTRIP
360
1C3
  0
DICTIONARY
  5
1C4
330
3F
100
AcDbDictionary
280
     1
281
     1
  3
ACAD_XREC_ROUNDTRIP
360
1C5
  0
DICTIONARY
  5
1B4
330
37
100
AcDbDictionary
280
     1
281
     1
  3
ACAD_XREC_ROUNDTRIP
360
1B5
  0
DICTIONARY
  5
1A6
330
30
100
AcDbDictionary
280
     1
281
     1
  3
ACAD_XREC_ROUNDTRIP
360
1A7
  0
DICTIONARY
  5
1C6
330
40
100
AcDbDictionary
280
     1
281
     1
  3
ACAD_XREC_ROUNDTRIP
360
1C7
  0
XRECORD
  5
1D0
102
{ACAD_REACTORS
330
1CF
102
}
330
1CF
100
AcDbXrecord
280
     1
102
ACAD_ROUNDTRIP_2010_MLEADER_STYLE
  0
CELLSTYLEMAP
  5
1CD
102
{ACAD_REACTORS
330
1CC
102
}
330
1CC
100
AcDbCellStyleMap
 90
        3
300
CELLSTYLE
  1
TABLEFORMAT_BEGIN
 90
        5
170
     1
 91
        0
 92
    32768
 62
   257
 93
        1
300
CONTENTFORMAT
  1
CONTENTFORMAT_BEGIN
 90
        0
 91
        0
 92
        4
 93
        0
300

 40
0.0
140
1.0
 94
        5
 62
     0
340
11
144
0.25
309
CONTENTFORMAT_END
171
     1
301
MARGIN
  1
CELLMARGIN_BEGIN
 40
0.06
 40
0.06
 40
0.06
 40
0.06
 40
0.06
 40
0.06
309
CELLMARGIN_END
 94
        6
 95
        1
302
GRIDFORMAT
  1
GRIDFORMAT_BEGIN
 90
        0
 91
        1
 62
     0
 92
       -2
340
14
 93
        0
 40
0.045
309
GRIDFORMAT_END
 95
        2
302
GRIDFORMAT
  1
GRIDFORMAT_BEGIN
 90
        0
 91
        1
 62
     0
 92
       -2
340
14
 93
        0
 40
0.045
309
GRIDFORMAT_END
 95
        4
302
GRIDFORMAT
  1
GRIDFORMAT_BEGIN
 90
        0
 91
        1
 62
     0
 92
       -2
340
14
 93
        0
 40
0.045
309
GRIDFORMAT_END
 95
        8
302
GRIDFORMAT
  1
GRIDFORMAT_BEGIN
 90
        0
 91
        1
 62
     0
 92
       -2
340
14
 93
        0
 40
0.045
309
GRIDFORMAT_END
 95
       16
302
GRIDFORMAT
  1
GRIDFORMAT_BEGIN
 90
        0
 91
        1
 62
     0
 92
       -2
340
14
 93
        0
 40
0.045
309
GRIDFORMAT_END
 95
       32
302
GRIDFORMAT
  1
GRIDFORMAT_BEGIN
 90
        0
 91
        1
 62
     0
 92
       -2
340
14
 93
        0
 40
0.045
309
GRIDFORMAT_END
309
TABLEFORMAT_END
  1
CELLSTYLE_BEGIN
 90
        1
 91
        1
300
_TITLE
309
CELLSTYLE_END
300
CELLSTYLE
  1
TABLEFORMAT_BEGIN
 90
        5
170
     1
 91
        0
 92
        0
 62
   257
 93
        1
300
CONTENTFORMAT
  1
CONTENTFORMAT_BEGIN
 90
        0
 91
        0
 92
        4
 93
        0
300

 40
0.0
140
1.0
 94
        5
 62
     0
340
11
144
0.18
309
CONTENTFORMAT_END
171
     1
301
MARGIN
  1
CELLMARGIN_BEGIN
 40
0.06
 40
0.06
 40
0.06
 40
0.06
 40
0.06
 40
0.06
309
CELLMARGIN_END
 94
        6
 95
        1
302
GRIDFORMAT
  1
GRIDFORMAT_BEGIN
 90
        0
 91
        1
 62
     0
 92
       -2
340
14
 93
        0
 40
0.045
309
GRIDFORMAT_END
 95
        2
302
GRIDFORMAT
  1
GRIDFORMAT_BEGIN
 90
        0
 91
        1
 62
     0
 92
       -2
340
14
 93
        0
 40
0.045
309
GRIDFORMAT_END
 95
        4
302
GRIDFORMAT
  1
GRIDFORMAT_BEGIN
 90
        0
 91
        1
 62
     0
 92
       -2
340
14
 93
        0
 40
0.045
309
GRIDFORMAT_END
 95
        8
302
GRIDFORMAT
  1
GRIDFORMAT_BEGIN
 90
        0
 91
        1
 62
     0
 92
       -2
340
14
 93
        0
 40
0.045
309
GRIDFORMAT_END
 95
       16
302
GRIDFORMAT
  1
GRIDFORMAT_BEGIN
 90
        0
 91
        1
 62
     0
 92
       -2
340
14
 93
        0
 40
0.045
309
GRIDFORMAT_END
 95
       32
302
GRIDFORMAT
  1
GRIDFORMAT_BEGIN
 90
        0
 91
        1
 62
     0
 92
       -2
340
14
 93
        0
 40
0.045
309
GRIDFORMAT_END
309
TABLEFORMAT_END
  1
CELLSTYLE_BEGIN
 90
        2
 91
        1
300
_HEADER
309
CELLSTYLE_END
300
CELLSTYLE
  1
TABLEFORMAT_BEGIN
 90
        5
170
     1
 91
        0
 92
        0
 62
   257
 93
        1
300
CONTENTFORMAT
  1
CONTENTFORMAT_BEGIN
 90
        0
 91
        0
 92
        4
 93
        0
300

 40
0.0
140
1.0
 94
        2
 62
     0
340
11
144
0.18
309
CONTENTFORMAT_END
171
     1
301
MARGIN
  1
CELLMARGIN_BEGIN
 40
0.06
 40
0.06
 40
0.06
 40
0.06
 40
0.06
 40
0.06
309
CELLMARGIN_END
 94
        6
 95
        1
302
GRIDFORMAT
  1
GRIDFORMAT_BEGIN
 90
        0
 91
        1
 62
     0
 92
       -2
340
14
 93
        0
 40
0.045
309
GRIDFORMAT_END
 95
        2
302
GRIDFORMAT
  1
GRIDFORMAT_BEGIN
 90
        0
 91
        1
 62
     0
 92
       -2
340
14
 93
        0
 40
0.045
309
GRIDFORMAT_END
 95
        4
302
GRIDFORMAT
  1
GRIDFORMAT_BEGIN
 90
        0
 91
        1
 62
     0
 92
       -2
340
14
 93
        0
 40
0.045
309
GRIDFORMAT_END
 95
        8
302
GRIDFORMAT
  1
GRIDFORMAT_BEGIN
 90
        0
 91
        1
 62
     0
 92
       -2
340
14
 93
        0
 40
0.045
309
GRIDFORMAT_END
 95
       16
302
GRIDFORMAT
  1
GRIDFORMAT_BEGIN
 90
        0
 91
        1
 62
     0
 92
       -2
340
14
 93
        0
 40
0.045
309
GRIDFORMAT_END
 95
       32
302
GRIDFORMAT
  1
GRIDFORMAT_BEGIN
 90
        0
 91
        1
 62
     0
 92
       -2
340
14
 93
        0
 40
0.045
309
GRIDFORMAT_END
309
TABLEFORMAT_END
  1
CELLSTYLE_BEGIN
 90
        3
 91
        2
300
_DATA
309
CELLSTYLE_END
  0
XRECORD
  5
1A5
102
{ACAD_REACTORS
330
1A4
102
}
330
1A4
100
AcDbXrecord
280
     1
102
RTVSPropertyOp0
 70
     1
102
RTVSPropertyOp1
 70
     1
102
RTVSPropertyOp2
 70
     1
102
RTVSPropertyOp3
 70
     1
102
RTVSPropertyOp4
 70
     1
102
RTVSPropertyOp5
 70
     1
102
RTVSPropertyOp6
 70
     1
102
RTVSPropertyOp7
 70
     1
102
RTVSPropertyOp8
 70
     1
102
RTVSPropertyOp9
 70
     1
102
RTVSPropertyOp10
 70
     1
102
RTVSPropertyOp11
 70
     1
102
RTVSPropertyOp12
 70
     1
102
RTVSPropertyOp13
 70
     1
102
RTVSPropertyOp14
 70
     1
102
RTVSPropertyOp15
 70
     1
102
RTVSPropertyOp16
 70
     1
102
RTVSPropertyOp17
 70
     1
102
RTVSPropertyOp18
 70
     1
102
RTVSPropertyOp19
 70
     1
102
RTVSPropertyOp20
 70
     1
102
RTVSPropertyOp21
 70
     1
102
RTVSPropertyOp22
 70
     1
102
RTVSPropertyOp23
 70
     1
102
RTVSPropertyOp24
 70
     1
102
RTVSPropertyOp25
 70
     1
102
RTVSPropertyOp26
 70
     1
102
RTVSPropertyOp27
 70
     1
102
RTVSPropertyOp28
 70
     1
102
RTVSPropertyOp29
 70
     1
102
RTVSPropertyOp30
 70
     1
102
RTVSPropertyOp31
 70
     1
102
RTVSPropertyOp32
 70
     1
102
RTVSPropertyOp33
 70
     1
102
RTVSPropertyOp34
 70
     1
102
RTVSPropertyOp35
 70
     1
102
RTVSPropertyOp36
 70
     1
102
RTVSPropertyOp37
 70
     1
102
RTVSPropertyOp38
 70
     1
102
RTVSPropertyOp39
 70
     1
102
RTVSPropertyOp40
 70
     1
102
RTVSPropertyOp41
 70
     1
102
RTVSPropertyOp42
 70
     1
102
RTVSPropertyOp43
 70
     1
102
RTVSPropertyOp44
 70
     1
102
RTVSPropertyOp45
 70
     1
102
RTVSPropertyOp46
 70
     1
102
RTVSPropertyOp47
 70
     1
102
RTVSPropertyOp48
 70
     1
102
RTVSPropertyOp49
 70
     1
102
RTVSPropertyOp50
 70
     1
102
RTVSPropertyOp51
 70
     0
102
RTVSPropertyOp52
 70
     0
102
RTVSPropertyOp53
 70
     1
102
RTVSPropertyOp54
 70
     1
102
RTVSPropertyOp55
 70
     1
102
RTVSPropertyOp56
 70
     1
102
RTVSPropertyOp57
 70
     1
102
RTVSPost2010Prop28
280
     1
102
RTVSPost2010PropOp28
 70
     1
102
RTVSPost2010Prop29
280
     1
102
RTVSPost2010PropOp29
 70
     1
102
RTVSPost2010Prop30
280
     0
102
RTVSPost2010PropOp30
 70
     1
102
RTVSPost2010Prop31
280
     0
102
RTVSPost2010PropOp31
 70
     1
102
RTVSPost2010Prop32
280
     0
102
RTVSPost2010PropOp32
 70
     1
102
RTVSPost2010Prop33
280
     0
102
RTVSPost2010PropOp33
 70
     1
102
RTVSPost2010Prop34
280
     0
102
RTVSPost2010PropOp34
 70
     1
102
RTVSPost2010Prop35
280
     0
102
RTVSPost2010PropOp35
 70
     1
102
RTVSPost2010Prop36
280
     0
102
RTVSPost2010PropOp36
 70
     1
102
RTVSPost2010Prop37
 90
       50
102
RTVSPost2010PropOp37
 70
     1
102
RTVSPost2010Prop38
140
0.0
102
RTVSPost2010PropOp38
 70
     1
102
RTVSPost2010Prop39
140
1.0
102
RTVSPost2010PropOp39
 70
     1
102
RTVSPost2010Prop40
 90
        0
102
RTVSPost2010PropOp40
 70
     1
102
RTVSPost2010Prop41ColorIndex
 90
       18
102
RTVSPost2010Prop41ColorRGB
 90
        0
102
RTVSPost2010PropOp41
 70
     1
102
RTVSPost2010Prop42
 90
       50
102
RTVSPost2010PropOp42
 70
     1
102
RTVSPost2010Prop43
 90
        3
102
RTVSPost2010PropOp43
 70
     1
102
RTVSPost2010Prop44ColorIndex
 90
        5
102
RTVSPost2010Prop44ColorRGB
 90
      255
102
RTVSPost2010PropOp44
 70
     1
102
RTVSPost2010Prop45
280
     0
102
RTVSPost2010PropOp45
 70
     1
102
RTVSPost2010Prop46
 90
       50
102
RTVSPost2010PropOp46
 70
     1
102
RTVSPost2010Prop47
 90
       50
102
RTVSPost2010PropOp47
 70
     1
102
RTVSPost2010Prop48
 90
       50
102
RTVSPost2010PropOp48
 70
     1
102
RTVSPost2010Prop49
280
     0
102
RTVSPost2010PropOp49
 70
     1
102
RTVSPost2010Prop50
 90
       50
102
RTVSPost2010PropOp50
 70
     1
102
RTVSPost2010Prop51ColorIndex
 90
      256
102
RTVSPost2010Prop51ColorRGB
 90
-16777216
102
RTVSPost2010PropOp51
 70
     0
102
RTVSPost2010Prop52
140
1.0
102
RTVSPost2010PropOp52
 70
     0
102
RTVSPost2010Prop53
 90
        2
102
RTVSPost2010PropOp53
 70
     1
102
RTVSPost2010Prop54
  1
strokes_ogs.tif
102
RTVSPost2010PropOp54
 70
     1
102
RTVSPost2010Prop55
280
     0
102
RTVSPost2010PropOp55
 70
     1
102
RTVSPost2010Prop56
140
1.0
102
RTVSPost2010PropOp56
 70
     1
102
RTVSPost2010Prop57
140
1.0
102
RTVSPost2010PropOp57
 70
     1
  0
XRECORD
  5
1AB
102
{ACAD_REACTORS
330
1AA
102
}
330
1AA
100
AcDbXrecord
280
     1
102
RTVSPropertyOp0
 70
     1
102
RTVSPropertyOp1
 70
     1
102
RTVSPropertyOp2
 70
     1
102
RTVSPropertyOp3
 70
     1
102
RTVSPropertyOp4
 70
     1
102
RTVSPropertyOp5
 70
     1
102
RTVSPropertyOp6
 70
     1
102
RTVSPropertyOp7
 70
     1
102
RTVSPropertyOp8
 70
     1
102
RTVSPropertyOp9
 70
     1
102
RTVSPropertyOp10
 70
     1
102
RTVSPropertyOp11
 70
     1
102
RTVSPropertyOp12
 70
     1
102
RTVSPropertyOp13
 70
     1
102
RTVSPropertyOp14
 70
     1
102
RTVSPropertyOp15
 70
     1
102
RTVSPropertyOp16
 70
     1
102
RTVSPropertyOp17
 70
     1
102
RTVSPropertyOp18
 70
     1
102
RTVSPropertyOp19
 70
     1
102
RTVSPropertyOp20
 70
     1
102
RTVSPropertyOp21
 70
     1
102
RTVSPropertyOp22
 70
     1
102
RTVSPropertyOp23
 70
     1
102
RTVSPropertyOp24
 70
     1
102
RTVSPropertyOp25
 70
     1
102
RTVSPropertyOp26
 70
     1
102
RTVSPropertyOp27
 70
     1
102
RTVSPropertyOp28
 70
     1
102
RTVSPropertyOp29
 70
     1
102
RTVSPropertyOp30
 70
     1
102
RTVSPropertyOp31
 70
     1
102
RTVSPropertyOp32
 70
     1
102
RTVSPropertyOp33
 70
     1
102
RTVSPropertyOp34
 70
     1
102
RTVSPropertyOp35
 70
     1
102
RTVSPropertyOp36
 70
     1
102
RTVSPropertyOp37
 70
     1
102
RTVSPropertyOp38
 70
     1
102
RTVSPropertyOp39
 70
     1
102
RTVSPropertyOp40
 70
     1
102
RTVSPropertyOp41
 70
     1
102
RTVSPropertyOp42
 70
     1
102
RTVSPropertyOp43
 70
     1
102
RTVSPropertyOp44
 70
     1
102
RTVSPropertyOp45
 70
     1
102
RTVSPropertyOp46
 70
     1
102
RTVSPropertyOp47
 70
     1
102
RTVSPropertyOp48
 70
     1
102
RTVSPropertyOp49
 70
     1
102
RTVSPropertyOp50
 70
     1
102
RTVSPropertyOp51
 70
     0
102
RTVSPropertyOp52
 70
     0
102
RTVSPropertyOp53
 70
     1
102
RTVSPropertyOp54
 70
     1
102
RTVSPropertyOp55
 70
     1
102
RTVSPropertyOp56
 70
     1
102
RTVSPropertyOp57
 70
     1
102
RTVSPost2010Prop28
280
     0
102
RTVSPost2010PropOp28
 70
     1
102
RTVSPost2010Prop29
280
     1
102
RTVSPost2010PropOp29
 70
     1
102
RTVSPost2010Prop30
280
     1
102
RTVSPost2010PropOp30
 70
     1
102
RTVSPost2010Prop31
280
     0
102
RTVSPost2010PropOp31
 70
     1
102
RTVSPost2010Prop32
280
     0
102
RTVSPost2010PropOp32
 70
     1
102
RTVSPost2010Prop33
280
     0
102
RTVSPost2010PropOp33
 70
     1
102
RTVSPost2010Prop34
280
     0
102
RTVSPost2010PropOp34
 70
     1
102
RTVSPost2010Prop35
280
     0
102
RTVSPost2010PropOp35
 70
     1
102
RTVSPost2010Prop36
280
     0
102
RTVSPost2010PropOp36
 70
     1
102
RTVSPost2010Prop37
 90
       50
102
RTVSPost2010PropOp37
 70
     1
102
RTVSPost2010Prop38
140
0.0
102
RTVSPost2010PropOp38
 70
     1
102
RTVSPost2010Prop39
140
1.0
102
RTVSPost2010PropOp39
 70
     1
102
RTVSPost2010Prop40
 90
        0
102
RTVSPost2010PropOp40
 70
     1
102
RTVSPost2010Prop41ColorIndex
 90
       18
102
RTVSPost2010Prop41ColorRGB
 90
        0
102
RTVSPost2010PropOp41
 70
     1
102
RTVSPost2010Prop42
 90
       50
102
RTVSPost2010PropOp42
 70
     1
102
RTVSPost2010Prop43
 90
        3
102
RTVSPost2010PropOp43
 70
     1
102
RTVSPost2010Prop44ColorIndex
 90
        5
102
RTVSPost2010Prop44ColorRGB
 90
      255
102
RTVSPost2010PropOp44
 70
     1
102
RTVSPost2010Prop45
280
     0
102
RTVSPost2010PropOp45
 70
     1
102
RTVSPost2010Prop46
 90
       50
102
RTVSPost2010PropOp46
 70
     1
102
RTVSPost2010Prop47
 90
       50
102
RTVSPost2010PropOp47
 70
     1
102
RTVSPost2010Prop48
 90
       50
102
RTVSPost2010PropOp48
 70
     1
102
RTVSPost2010Prop49
280
     0
102
RTVSPost2010PropOp49
 70
     1
102
RTVSPost2010Prop50
 90
       50
102
RTVSPost2010PropOp50
 70
     1
102
RTVSPost2010Prop51ColorIndex
 90
      256
102
RTVSPost2010Prop51ColorRGB
 90
-16777216
102
RTVSPost2010PropOp51
 70
     0
102
RTVSPost2010Prop52
140
1.0
102
RTVSPost2010PropOp52
 70
     0
102
RTVSPost2010Prop53
 90
        2
102
RTVSPost2010PropOp53
 70
     1
102
RTVSPost2010Prop54
  1
strokes_ogs.tif
102
RTVSPost2010PropOp54
 70
     1
102
RTVSPost2010Prop55
280
     0
102
RTVSPost2010PropOp55
 70
     1
102
RTVSPost2010Prop56
140
1.0
102
RTVSPost2010PropOp56
 70
     1
102
RTVSPost2010Prop57
140
1.0
102
RTVSPost2010PropOp57
 70
     1
  0
XRECORD
  5
1B3
102
{ACAD_REACTORS
330
1B2
102
}
330
1B2
100
AcDbXrecord
280
     1
102
RTVSPropertyOp0
 70
     1
102
RTVSPropertyOp1
 70
     1
102
RTVSPropertyOp2
 70
     1
102
RTVSPropertyOp3
 70
     1
102
RTVSPropertyOp4
 70
     1
102
RTVSPropertyOp5
 70
     1
102
RTVSPropertyOp6
 70
     1
102
RTVSPropertyOp7
 70
     1
102
RTVSPropertyOp8
 70
     1
102
RTVSPropertyOp9
 70
     1
102
RTVSPropertyOp10
 70
     1
102
RTVSPropertyOp11
 70
     1
102
RTVSPropertyOp12
 70
     1
102
RTVSPropertyOp13
 70
     1
102
RTVSPropertyOp14
 70
     1
102
RTVSPropertyOp15
 70
     1
102
RTVSPropertyOp16
 70
     1
102
RTVSPropertyOp17
 70
     1
102
RTVSPropertyOp18
 70
     1
102
RTVSPropertyOp19
 70
     1
102
RTVSPropertyOp20
 70
     1
102
RTVSPropertyOp21
 70
     1
102
RTVSPropertyOp22
 70
     1
102
RTVSPropertyOp23
 70
     1
102
RTVSPropertyOp24
 70
     1
102
RTVSPropertyOp25
 70
     1
102
RTVSPropertyOp26
 70
     1
102
RTVSPropertyOp27
 70
     1
102
RTVSPropertyOp28
 70
     1
102
RTVSPropertyOp29
 70
     1
102
RTVSPropertyOp30
 70
     1
102
RTVSPropertyOp31
 70
     1
102
RTVSPropertyOp32
 70
     1
102
RTVSPropertyOp33
 70
     1
102
RTVSPropertyOp34
 70
     1
102
RTVSPropertyOp35
 70
     1
102
RTVSPropertyOp36
 70
     1
102
RTVSPropertyOp37
 70
     1
102
RTVSPropertyOp38
 70
     1
102
RTVSPropertyOp39
 70
     1
102
RTVSPropertyOp40
 70
     1
102
RTVSPropertyOp41
 70
     1
102
RTVSPropertyOp42
 70
     1
102
RTVSPropertyOp43
 70
     1
102
RTVSPropertyOp44
 70
     1
102
RTVSPropertyOp45
 70
     1
102
RTVSPropertyOp46
 70
     1
102
RTVSPropertyOp47
 70
     1
102
RTVSPropertyOp48
 70
     1
102
RTVSPropertyOp49
 70
     1
102
RTVSPropertyOp50
 70
     1
102
RTVSPropertyOp51
 70
     0
102
RTVSPropertyOp52
 70
     0
102
RTVSPropertyOp53
 70
     1
102
RTVSPropertyOp54
 70
     1
102
RTVSPropertyOp55
 70
     1
102
RTVSPropertyOp56
 70
     1
102
RTVSPropertyOp57
 70
     1
102
RTVSPost2010Prop28
280
     0
102
RTVSPost2010PropOp28
 70
     1
102
RTVSPost2010Prop29
280
     1
102
RTVSPost2010PropOp29
 70
     1
102
RTVSPost2010Prop30
280
     1
102
RTVSPost2010PropOp30
 70
     1
102
RTVSPost2010Prop31
280
     0
102
RTVSPost2010PropOp31
 70
     1
102
RTVSPost2010Prop32
280
     0
102
RTVSPost2010PropOp32
 70
     1
102
RTVSPost2010Prop33
280
     0
102
RTVSPost2010PropOp33
 70
     1
102
RTVSPost2010Prop34
280
     0
102
RTVSPost2010PropOp34
 70
     1
102
RTVSPost2010Prop35
280
     0
102
RTVSPost2010PropOp35
 70
     1
102
RTVSPost2010Prop36
280
     0
102
RTVSPost2010PropOp36
 70
     1
102
RTVSPost2010Prop37
 90
       50
102
RTVSPost2010PropOp37
 70
     1
102
RTVSPost2010Prop38
140
0.0
102
RTVSPost2010PropOp38
 70
     1
102
RTVSPost2010Prop39
140
1.0
102
RTVSPost2010PropOp39
 70
     1
102
RTVSPost2010Prop40
 90
        0
102
RTVSPost2010PropOp40
 70
     1
102
RTVSPost2010Prop41ColorIndex
 90
       18
102
RTVSPost2010Prop41ColorRGB
 90
        0
102
RTVSPost2010PropOp41
 70
     1
102
RTVSPost2010Prop42
 90
       50
102
RTVSPost2010PropOp42
 70
     1
102
RTVSPost2010Prop43
 90
        3
102
RTVSPost2010PropOp43
 70
     1
102
RTVSPost2010Prop44ColorIndex
 90
        5
102
RTVSPost2010Prop44ColorRGB
 90
      255
102
RTVSPost2010PropOp44
 70
     1
102
RTVSPost2010Prop45
280
     0
102
RTVSPost2010PropOp45
 70
     1
102
RTVSPost2010Prop46
 90
       50
102
RTVSPost2010PropOp46
 70
     1
102
RTVSPost2010Prop47
 90
       50
102
RTVSPost2010PropOp47
 70
     1
102
RTVSPost2010Prop48
 90
       50
102
RTVSPost2010PropOp48
 70
     1
102
RTVSPost2010Prop49
280
     0
102
RTVSPost2010PropOp49
 70
     1
102
RTVSPost2010Prop50
 90
       50
102
RTVSPost2010PropOp50
 70
     1
102
RTVSPost2010Prop51ColorIndex
 90
      256
102
RTVSPost2010Prop51ColorRGB
 90
-16777216
102
RTVSPost2010PropOp51
 70
     0
102
RTVSPost2010Prop52
140
1.0
102
RTVSPost2010PropOp52
 70
     0
102
RTVSPost2010Prop53
 90
        2
102
RTVSPost2010PropOp53
 70
     1
102
RTVSPost2010Prop54
  1
strokes_ogs.tif
102
RTVSPost2010PropOp54
 70
     1
102
RTVSPost2010Prop55
280
     0
102
RTVSPost2010PropOp55
 70
     1
102
RTVSPost2010Prop56
140
1.0
102
RTVSPost2010PropOp56
 70
     1
102
RTVSPost2010Prop57
140
1.0
102
RTVSPost2010PropOp57
 70
     1
  0
XRECORD
  5
1BB
102
{ACAD_REACTORS
330
1BA
102
}
330
1BA
100
AcDbXrecord
280
     1
102
RTVSPropertyOp0
 70
     1
102
RTVSPropertyOp1
 70
     1
102
RTVSPropertyOp2
 70
     1
102
RTVSPropertyOp3
 70
     1
102
RTVSPropertyOp4
 70
     1
102
RTVSPropertyOp5
 70
     1
102
RTVSPropertyOp6
 70
     1
102
RTVSPropertyOp7
 70
     1
102
RTVSPropertyOp8
 70
     1
102
RTVSPropertyOp9
 70
     1
102
RTVSPropertyOp10
 70
     1
102
RTVSPropertyOp11
 70
     1
102
RTVSPropertyOp12
 70
     1
102
RTVSPropertyOp13
 70
     1
102
RTVSPropertyOp14
 70
     1
102
RTVSPropertyOp15
 70
     1
102
RTVSPropertyOp16
 70
     1
102
RTVSPropertyOp17
 70
     1
102
RTVSPropertyOp18
 70
     1
102
RTVSPropertyOp19
 70
     1
102
RTVSPropertyOp20
 70
     1
102
RTVSPropertyOp21
 70
     1
102
RTVSPropertyOp22
 70
     1
102
RTVSPropertyOp23
 70
     1
102
RTVSPropertyOp24
 70
     1
102
RTVSPropertyOp25
 70
     1
102
RTVSPropertyOp26
 70
     1
102
RTVSPropertyOp27
 70
     1
102
RTVSPropertyOp28
 70
     1
102
RTVSPropertyOp29
 70
     1
102
RTVSPropertyOp30
 70
     1
102
RTVSPropertyOp31
 70
     1
102
RTVSPropertyOp32
 70
     1
102
RTVSPropertyOp33
 70
     1
102
RTVSPropertyOp34
 70
     1
102
RTVSPropertyOp35
 70
     1
102
RTVSPropertyOp36
 70
     1
102
RTVSPropertyOp37
 70
     1
102
RTVSPropertyOp38
 70
     1
102
RTVSPropertyOp39
 70
     1
102
RTVSPropertyOp40
 70
     1
102
RTVSPropertyOp41
 70
     1
102
RTVSPropertyOp42
 70
     1
102
RTVSPropertyOp43
 70
     1
102
RTVSPropertyOp44
 70
     1
102
RTVSPropertyOp45
 70
     1
102
RTVSPropertyOp46
 70
     1
102
RTVSPropertyOp47
 70
     1
102
RTVSPropertyOp48
 70
     1
102
RTVSPropertyOp49
 70
     1
102
RTVSPropertyOp50
 70
     1
102
RTVSPropertyOp51
 70
     0
102
RTVSPropertyOp52
 70
     0
102
RTVSPropertyOp53
 70
     1
102
RTVSPropertyOp54
 70
     1
102
RTVSPropertyOp55
 70
     1
102
RTVSPropertyOp56
 70
     1
102
RTVSPropertyOp57
 70
     1
102
RTVSPost2010Prop28
280
     0
102
RTVSPost2010PropOp28
 70
     1
102
RTVSPost2010Prop29
280
     1
102
RTVSPost2010PropOp29
 70
     1
102
RTVSPost2010Prop30
280
     1
102
RTVSPost2010PropOp30
 70
     1
102
RTVSPost2010Prop31
280
     0
102
RTVSPost2010PropOp31
 70
     1
102
RTVSPost2010Prop32
280
     0
102
RTVSPost2010PropOp32
 70
     1
102
RTVSPost2010Prop33
280
     0
102
RTVSPost2010PropOp33
 70
     1
102
RTVSPost2010Prop34
280
     0
102
RTVSPost2010PropOp34
 70
     1
102
RTVSPost2010Prop35
280
     0
102
RTVSPost2010PropOp35
 70
     1
102
RTVSPost2010Prop36
280
     0
102
RTVSPost2010PropOp36
 70
     1
102
RTVSPost2010Prop37
 90
       50
102
RTVSPost2010PropOp37
 70
     1
102
RTVSPost2010Prop38
140
0.0
102
RTVSPost2010PropOp38
 70
     1
102
RTVSPost2010Prop39
140
1.0
102
RTVSPost2010PropOp39
 70
     1
102
RTVSPost2010Prop40
 90
        0
102
RTVSPost2010PropOp40
 70
     1
102
RTVSPost2010Prop41ColorIndex
 90
       18
102
RTVSPost2010Prop41ColorRGB
 90
        0
102
RTVSPost2010PropOp41
 70
     1
102
RTVSPost2010Prop42
 90
       50
102
RTVSPost2010PropOp42
 70
     1
102
RTVSPost2010Prop43
 90
        3
102
RTVSPost2010PropOp43
 70
     1
102
RTVSPost2010Prop44ColorIndex
 90
        5
102
RTVSPost2010Prop44ColorRGB
 90
      255
102
RTVSPost2010PropOp44
 70
     1
102
RTVSPost2010Prop45
280
     0
102
RTVSPost2010PropOp45
 70
     1
102
RTVSPost2010Prop46
 90
       50
102
RTVSPost2010PropOp46
 70
     1
102
RTVSPost2010Prop47
 90
       50
102
RTVSPost2010PropOp47
 70
     1
102
RTVSPost2010Prop48
 90
       50
102
RTVSPost2010PropOp48
 70
     1
102
RTVSPost2010Prop49
280
     0
102
RTVSPost2010PropOp49
 70
     1
102
RTVSPost2010Prop50
 90
       50
102
RTVSPost2010PropOp50
 70
     1
102
RTVSPost2010Prop51ColorIndex
 90
      256
102
RTVSPost2010Prop51ColorRGB
 90
-16777216
102
RTVSPost2010PropOp51
 70
     0
102
RTVSPost2010Prop52
140
1.0
102
RTVSPost2010PropOp52
 70
     0
102
RTVSPost2010Prop53
 90
        2
102
RTVSPost2010PropOp53
 70
     1
102
RTVSPost2010Prop54
  1
strokes_ogs.tif
102
RTVSPost2010PropOp54
 70
     1
102
RTVSPost2010Prop55
280
     0
102
RTVSPost2010PropOp55
 70
     1
102
RTVSPost2010Prop56
140
1.0
102
RTVSPost2010PropOp56
 70
     1
102
RTVSPost2010Prop57
140
1.0
102
RTVSPost2010PropOp57
 70
     1
  0
XRECORD
  5
1AF
102
{ACAD_REACTORS
330
1AE
102
}
330
1AE
100
AcDbXrecord
280
     1
102
RTVSPropertyOp0
 70
     1
102
RTVSPropertyOp1
 70
     1
102
RTVSPropertyOp2
 70
     1
102
RTVSPropertyOp3
 70
     1
102
RTVSPropertyOp4
 70
     1
102
RTVSPropertyOp5
 70
     1
102
RTVSPropertyOp6
 70
     1
102
RTVSPropertyOp7
 70
     1
102
RTVSPropertyOp8
 70
     1
102
RTVSPropertyOp9
 70
     1
102
RTVSPropertyOp10
 70
     1
102
RTVSPropertyOp11
 70
     1
102
RTVSPropertyOp12
 70
     1
102
RTVSPropertyOp13
 70
     1
102
RTVSPropertyOp14
 70
     1
102
RTVSPropertyOp15
 70
     1
102
RTVSPropertyOp16
 70
     1
102
RTVSPropertyOp17
 70
     1
102
RTVSPropertyOp18
 70
     1
102
RTVSPropertyOp19
 70
     1
102
RTVSPropertyOp20
 70
     1
102
RTVSPropertyOp21
 70
     1
102
RTVSPropertyOp22
 70
     1
102
RTVSPropertyOp23
 70
     1
102
RTVSPropertyOp24
 70
     1
102
RTVSPropertyOp25
 70
     1
102
RTVSPropertyOp26
 70
     1
102
RTVSPropertyOp27
 70
     1
102
RTVSPropertyOp28
 70
     1
102
RTVSPropertyOp29
 70
     1
102
RTVSPropertyOp30
 70
     1
102
RTVSPropertyOp31
 70
     1
102
RTVSPropertyOp32
 70
     1
102
RTVSPropertyOp33
 70
     1
102
RTVSPropertyOp34
 70
     1
102
RTVSPropertyOp35
 70
     1
102
RTVSPropertyOp36
 70
     1
102
RTVSPropertyOp37
 70
     1
102
RTVSPropertyOp38
 70
     1
102
RTVSPropertyOp39
 70
     1
102
RTVSPropertyOp40
 70
     1
102
RTVSPropertyOp41
 70
     1
102
RTVSPropertyOp42
 70
     1
102
RTVSPropertyOp43
 70
     1
102
RTVSPropertyOp44
 70
     1
102
RTVSPropertyOp45
 70
     1
102
RTVSPropertyOp46
 70
     1
102
RTVSPropertyOp47
 70
     1
102
RTVSPropertyOp48
 70
     1
102
RTVSPropertyOp49
 70
     1
102
RTVSPropertyOp50
 70
     1
102
RTVSPropertyOp51
 70
     0
102
RTVSPropertyOp52
 70
     0
102
RTVSPropertyOp53
 70
     1
102
RTVSPropertyOp54
 70
     1
102
RTVSPropertyOp55
 70
     1
102
RTVSPropertyOp56
 70
     1
102
RTVSPropertyOp57
 70
     1
102
RTVSPost2010Prop28
280
     0
102
RTVSPost2010PropOp28
 70
     1
102
RTVSPost2010Prop29
280
     1
102
RTVSPost2010PropOp29
 70
     1
102
RTVSPost2010Prop30
280
     1
102
RTVSPost2010PropOp30
 70
     1
102
RTVSPost2010Prop31
280
     0
102
RTVSPost2010PropOp31
 70
     1
102
RTVSPost2010Prop32
280
     0
102
RTVSPost2010PropOp32
 70
     1
102
RTVSPost2010Prop33
280
     0
102
RTVSPost2010PropOp33
 70
     1
102
RTVSPost2010Prop34
280
     0
102
RTVSPost2010PropOp34
 70
     1
102
RTVSPost2010Prop35
280
     0
102
RTVSPost2010PropOp35
 70
     1
102
RTVSPost2010Prop36
280
     0
102
RTVSPost2010PropOp36
 70
     1
102
RTVSPost2010Prop37
 90
       50
102
RTVSPost2010PropOp37
 70
     1
102
RTVSPost2010Prop38
140
0.0
102
RTVSPost2010PropOp38
 70
     1
102
RTVSPost2010Prop39
140
1.0
102
RTVSPost2010PropOp39
 70
     1
102
RTVSPost2010Prop40
 90
        0
102
RTVSPost2010PropOp40
 70
     1
102
RTVSPost2010Prop41ColorIndex
 90
       18
102
RTVSPost2010Prop41ColorRGB
 90
        0
102
RTVSPost2010PropOp41
 70
     1
102
RTVSPost2010Prop42
 90
       50
102
RTVSPost2010PropOp42
 70
     1
102
RTVSPost2010Prop43
 90
        3
102
RTVSPost2010PropOp43
 70
     1
102
RTVSPost2010Prop44ColorIndex
 90
        5
102
RTVSPost2010Prop44ColorRGB
 90
      255
102
RTVSPost2010PropOp44
 70
     1
102
RTVSPost2010Prop45
280
     0
102
RTVSPost2010PropOp45
 70
     1
102
RTVSPost2010Prop46
 90
       50
102
RTVSPost2010PropOp46
 70
     1
102
RTVSPost2010Prop47
 90
       50
102
RTVSPost2010PropOp47
 70
     1
102
RTVSPost2010Prop48
 90
       50
102
RTVSPost2010PropOp48
 70
     1
102
RTVSPost2010Prop49
280
     0
102
RTVSPost2010PropOp49
 70
     1
102
RTVSPost2010Prop50
 90
       50
102
RTVSPost2010PropOp50
 70
     1
102
RTVSPost2010Prop51ColorIndex
 90
      256
102
RTVSPost2010Prop51ColorRGB
 90
-16777216
102
RTVSPost2010PropOp51
 70
     0
102
RTVSPost2010Prop52
140
1.0
102
RTVSPost2010PropOp52
 70
     0
102
RTVSPost2010Prop53
 90
        2
102
RTVSPost2010PropOp53
 70
     1
102
RTVSPost2010Prop54
  1
strokes_ogs.tif
102
RTVSPost2010PropOp54
 70
     1
102
RTVSPost2010Prop55
280
     0
102
RTVSPost2010PropOp55
 70
     1
102
RTVSPost2010Prop56
140
1.0
102
RTVSPost2010PropOp56
 70
     1
102
RTVSPost2010Prop57
140
1.0
102
RTVSPost2010PropOp57
 70
     1
  0
XRECORD
  5
1B1
102
{ACAD_REACTORS
330
1B0
102
}
330
1B0
100
AcDbXrecord
280
     1
102
RTVSPropertyOp0
 70
     1
102
RTVSPropertyOp1
 70
     1
102
RTVSPropertyOp2
 70
     1
102
RTVSPropertyOp3
 70
     1
102
RTVSPropertyOp4
 70
     1
102
RTVSPropertyOp5
 70
     1
102
RTVSPropertyOp6
 70
     1
102
RTVSPropertyOp7
 70
     1
102
RTVSPropertyOp8
 70
     1
102
RTVSPropertyOp9
 70
     1
102
RTVSPropertyOp10
 70
     1
102
RTVSPropertyOp11
 70
     1
102
RTVSPropertyOp12
 70
     1
102
RTVSPropertyOp13
 70
     1
102
RTVSPropertyOp14
 70
     1
102
RTVSPropertyOp15
 70
     1
102
RTVSPropertyOp16
 70
     1
102
RTVSPropertyOp17
 70
     1
102
RTVSPropertyOp18
 70
     1
102
RTVSPropertyOp19
 70
     1
102
RTVSPropertyOp20
 70
     1
102
RTVSPropertyOp21
 70
     1
102
RTVSPropertyOp22
 70
     1
102
RTVSPropertyOp23
 70
     1
102
RTVSPropertyOp24
 70
     1
102
RTVSPropertyOp25
 70
     1
102
RTVSPropertyOp26
 70
     1
102
RTVSPropertyOp27
 70
     1
102
RTVSPropertyOp28
 70
     1
102
RTVSPropertyOp29
 70
     1
102
RTVSPropertyOp30
 70
     1
102
RTVSPropertyOp31
 70
     1
102
RTVSPropertyOp32
 70
     1
102
RTVSPropertyOp33
 70
     1
102
RTVSPropertyOp34
 70
     1
102
RTVSPropertyOp35
 70
     1
102
RTVSPropertyOp36
 70
     1
102
RTVSPropertyOp37
 70
     1
102
RTVSPropertyOp38
 70
     1
102
RTVSPropertyOp39
 70
     1
102
RTVSPropertyOp40
 70
     1
102
RTVSPropertyOp41
 70
     1
102
RTVSPropertyOp42
 70
     1
102
RTVSPropertyOp43
 70
     1
102
RTVSPropertyOp44
 70
     1
102
RTVSPropertyOp45
 70
     1
102
RTVSPropertyOp46
 70
     1
102
RTVSPropertyOp47
 70
     1
102
RTVSPropertyOp48
 70
     1
102
RTVSPropertyOp49
 70
     1
102
RTVSPropertyOp50
 70
     1
102
RTVSPropertyOp51
 70
     0
102
RTVSPropertyOp52
 70
     0
102
RTVSPropertyOp53
 70
     1
102
RTVSPropertyOp54
 70
     1
102
RTVSPropertyOp55
 70
     1
102
RTVSPropertyOp56
 70
     1
102
RTVSPropertyOp57
 70
     1
102
RTVSPost2010Prop28
280
     0
102
RTVSPost2010PropOp28
 70
     1
102
RTVSPost2010Prop29
280
     1
102
RTVSPost2010PropOp29
 70
     1
102
RTVSPost2010Prop30
280
     1
102
RTVSPost2010PropOp30
 70
     1
102
RTVSPost2010Prop31
280
     0
102
RTVSPost2010PropOp31
 70
     1
102
RTVSPost2010Prop32
280
     0
102
RTVSPost2010PropOp32
 70
     1
102
RTVSPost2010Prop33
280
     0
102
RTVSPost2010PropOp33
 70
     1
102
RTVSPost2010Prop34
280
     0
102
RTVSPost2010PropOp34
 70
     1
102
RTVSPost2010Prop35
280
     0
102
RTVSPost2010PropOp35
 70
     1
102
RTVSPost2010Prop36
280
     0
102
RTVSPost2010PropOp36
 70
     1
102
RTVSPost2010Prop37
 90
       50
102
RTVSPost2010PropOp37
 70
     1
102
RTVSPost2010Prop38
140
0.0
102
RTVSPost2010PropOp38
 70
     1
102
RTVSPost2010Prop39
140
1.0
102
RTVSPost2010PropOp39
 70
     1
102
RTVSPost2010Prop40
 90
        0
102
RTVSPost2010PropOp40
 70
     1
102
RTVSPost2010Prop41ColorIndex
 90
       18
102
RTVSPost2010Prop41ColorRGB
 90
        0
102
RTVSPost2010PropOp41
 70
     1
102
RTVSPost2010Prop42
 90
       50
102
RTVSPost2010PropOp42
 70
     1
102
RTVSPost2010Prop43
 90
        3
102
RTVSPost2010PropOp43
 70
     1
102
RTVSPost2010Prop44ColorIndex
 90
        5
102
RTVSPost2010Prop44ColorRGB
 90
      255
102
RTVSPost2010PropOp44
 70
     1
102
RTVSPost2010Prop45
280
     0
102
RTVSPost2010PropOp45
 70
     1
102
RTVSPost2010Prop46
 90
       50
102
RTVSPost2010PropOp46
 70
     1
102
RTVSPost2010Prop47
 90
       50
102
RTVSPost2010PropOp47
 70
     1
102
RTVSPost2010Prop48
 90
       50
102
RTVSPost2010PropOp48
 70
     1
102
RTVSPost2010Prop49
280
     0
102
RTVSPost2010PropOp49
 70
     1
102
RTVSPost2010Prop50
 90
       50
102
RTVSPost2010PropOp50
 70
     1
102
RTVSPost2010Prop51ColorIndex
 90
      256
102
RTVSPost2010Prop51ColorRGB
 90
-16777216
102
RTVSPost2010PropOp51
 70
     0
102
RTVSPost2010Prop52
140
1.0
102
RTVSPost2010PropOp52
 70
     0
102
RTVSPost2010Prop53
 90
        2
102
RTVSPost2010PropOp53
 70
     1
102
RTVSPost2010Prop54
  1
strokes_ogs.tif
102
RTVSPost2010PropOp54
 70
     1
102
RTVSPost2010Prop55
280
     0
102
RTVSPost2010PropOp55
 70
     1
102
RTVSPost2010Prop56
140
1.0
102
RTVSPost2010PropOp56
 70
     1
102
RTVSPost2010Prop57
140
1.0
102
RTVSPost2010PropOp57
 70
     1
  0
XRECORD
  5
1C1
102
{ACAD_REACTORS
330
1C0
102
}
330
1C0
100
AcDbXrecord
280
     1
102
RTVSPropertyOp0
 70
     0
102
RTVSPropertyOp1
 70
     0
102
RTVSPropertyOp2
 70
     0
102
RTVSPropertyOp3
 70
     0
102
RTVSPropertyOp4
 70
     0
102
RTVSPropertyOp5
 70
     0
102
RTVSPropertyOp6
 70
     0
102
RTVSPropertyOp7
 70
     0
102
RTVSPropertyOp8
 70
     0
102
RTVSPropertyOp9
 70
     0
102
RTVSPropertyOp10
 70
     0
102
RTVSPropertyOp11
 70
     0
102
RTVSPropertyOp12
 70
     0
102
RTVSPropertyOp13
 70
     0
102
RTVSPropertyOp14
 70
     2
102
RTVSPropertyOp15
 70
     0
102
RTVSPropertyOp16
 70
     0
102
RTVSPropertyOp17
 70
     0
102
RTVSPropertyOp18
 70
     0
102
RTVSPropertyOp19
 70
     0
102
RTVSPropertyOp20
 70
     0
102
RTVSPropertyOp21
 70
     0
102
RTVSPropertyOp22
 70
     0
102
RTVSPropertyOp23
 70
     0
102
RTVSPropertyOp24
 70
     0
102
RTVSPropertyOp25
 70
     0
102
RTVSPropertyOp26
 70
     0
102
RTVSPropertyOp27
 70
     0
102
RTVSPropertyOp28
 70
     0
102
RTVSPropertyOp29
 70
     0
102
RTVSPropertyOp30
 70
     0
102
RTVSPropertyOp31
 70
     0
102
RTVSPropertyOp32
 70
     0
102
RTVSPropertyOp33
 70
     0
102
RTVSPropertyOp34
 70
     0
102
RTVSPropertyOp35
 70
     0
102
RTVSPropertyOp36
 70
     0
102
RTVSPropertyOp37
 70
     0
102
RTVSPropertyOp38
 70
     0
102
RTVSPropertyOp39
 70
     0
102
RTVSPropertyOp40
 70
     0
102
RTVSPropertyOp41
 70
     0
102
RTVSPropertyOp42
 70
     0
102
RTVSPropertyOp43
 70
     0
102
RTVSPropertyOp44
 70
     0
102
RTVSPropertyOp45
 70
     0
102
RTVSPropertyOp46
 70
     0
102
RTVSPropertyOp47
 70
     0
102
RTVSPropertyOp48
 70
     0
102
RTVSPropertyOp49
 70
     0
102
RTVSPropertyOp50
 70
     0
102
RTVSPropertyOp51
 70
     0
102
RTVSPropertyOp52
 70
     0
102
RTVSPropertyOp53
 70
     0
102
RTVSPropertyOp54
 70
     0
102
RTVSPropertyOp55
 70
     0
102
RTVSPropertyOp56
 70
     0
102
RTVSPropertyOp57
 70
     0
102
RTVSPost2010Prop28
280
     0
102
RTVSPost2010PropOp28
 70
     0
102
RTVSPost2010Prop29
280
     1
102
RTVSPost2010PropOp29
 70
     0
102
RTVSPost2010Prop30
280
     1
102
RTVSPost2010PropOp30
 70
     0
102
RTVSPost2010Prop31
280
     0
102
RTVSPost2010PropOp31
 70
     0
102
RTVSPost2010Prop32
280
     0
102
RTVSPost2010PropOp32
 70
     0
102
RTVSPost2010Prop33
280
     0
102
RTVSPost2010PropOp33
 70
     0
102
RTVSPost2010Prop34
280
     0
102
RTVSPost2010PropOp34
 70
     0
102
RTVSPost2010Prop35
280
     0
102
RTVSPost2010PropOp35
 70
     0
102
RTVSPost2010Prop36
280
     0
102
RTVSPost2010PropOp36
 70
     0
102
RTVSPost2010Prop37
 90
       50
102
RTVSPost2010PropOp37
 70
     0
102
RTVSPost2010Prop38
140
0.0
102
RTVSPost2010PropOp38
 70
     0
102
RTVSPost2010Prop39
140
1.0
102
RTVSPost2010PropOp39
 70
     0
102
RTVSPost2010Prop40
 90
        0
102
RTVSPost2010PropOp40
 70
     0
102
RTVSPost2010Prop41ColorIndex
 90
       18
102
RTVSPost2010Prop41ColorRGB
 90
        0
102
RTVSPost2010PropOp41
 70
     0
102
RTVSPost2010Prop42
 90
       50
102
RTVSPost2010PropOp42
 70
     0
102
RTVSPost2010Prop43
 90
        3
102
RTVSPost2010PropOp43
 70
     0
102
RTVSPost2010Prop44ColorIndex
 90
        5
102
RTVSPost2010Prop44ColorRGB
 90
      255
102
RTVSPost2010PropOp44
 70
     0
102
RTVSPost2010Prop45
280
     0
102
RTVSPost2010PropOp45
 70
     0
102
RTVSPost2010Prop46
 90
       50
102
RTVSPost2010PropOp46
 70
     0
102
RTVSPost2010Prop47
 90
       50
102
RTVSPost2010PropOp47
 70
     0
102
RTVSPost2010Prop48
 90
       50
102
RTVSPost2010PropOp48
 70
     0
102
RTVSPost2010Prop49
280
     0
102
RTVSPost2010PropOp49
 70
     0
102
RTVSPost2010Prop50
 90
       50
102
RTVSPost2010PropOp50
 70
     0
102
RTVSPost2010Prop51ColorIndex
 90
      256
102
RTVSPost2010Prop51ColorRGB
 90
-16777216
102
RTVSPost2010PropOp51
 70
     0
102
RTVSPost2010Prop52
140
1.0
102
RTVSPost2010PropOp52
 70
     0
102
RTVSPost2010Prop53
 90
        2
102
RTVSPost2010PropOp53
 70
     0
102
RTVSPost2010Prop54
  1
strokes_ogs.tif
102
RTVSPost2010PropOp54
 70
     0
102
RTVSPost2010Prop55
280
     0
102
RTVSPost2010PropOp55
 70
     0
102
RTVSPost2010Prop56
140
1.0
102
RTVSPost2010PropOp56
 70
     0
102
RTVSPost2010Prop57
140
1.0
102
RTVSPost2010PropOp57
 70
     0
  0
XRECORD
  5
1B9
102
{ACAD_REACTORS
330
1B8
102
}
330
1B8
100
AcDbXrecord
280
     1
102
RTVSPropertyOp0
 70
     1
102
RTVSPropertyOp1
 70
     1
102
RTVSPropertyOp2
 70
     1
102
RTVSPropertyOp3
 70
     1
102
RTVSPropertyOp4
 70
     1
102
RTVSPropertyOp5
 70
     1
102
RTVSPropertyOp6
 70
     1
102
RTVSPropertyOp7
 70
     1
102
RTVSPropertyOp8
 70
     1
102
RTVSPropertyOp9
 70
     1
102
RTVSPropertyOp10
 70
     1
102
RTVSPropertyOp11
 70
     1
102
RTVSPropertyOp12
 70
     1
102
RTVSPropertyOp13
 70
     1
102
RTVSPropertyOp14
 70
     1
102
RTVSPropertyOp15
 70
     1
102
RTVSPropertyOp16
 70
     1
102
RTVSPropertyOp17
 70
     1
102
RTVSPropertyOp18
 70
     1
102
RTVSPropertyOp19
 70
     1
102
RTVSPropertyOp20
 70
     1
102
RTVSPropertyOp21
 70
     1
102
RTVSPropertyOp22
 70
     1
102
RTVSPropertyOp23
 70
     1
102
RTVSPropertyOp24
 70
     1
102
RTVSPropertyOp25
 70
     1
102
RTVSPropertyOp26
 70
     1
102
RTVSPropertyOp27
 70
     1
102
RTVSPropertyOp28
 70
     1
102
RTVSPropertyOp29
 70
     1
102
RTVSPropertyOp30
 70
     1
102
RTVSPropertyOp31
 70
     1
102
RTVSPropertyOp32
 70
     1
102
RTVSPropertyOp33
 70
     1
102
RTVSPropertyOp34
 70
     1
102
RTVSPropertyOp35
 70
     1
102
RTVSPropertyOp36
 70
     1
102
RTVSPropertyOp37
 70
     1
102
RTVSPropertyOp38
 70
     1
102
RTVSPropertyOp39
 70
     1
102
RTVSPropertyOp40
 70
     1
102
RTVSPropertyOp41
 70
     1
102
RTVSPropertyOp42
 70
     1
102
RTVSPropertyOp43
 70
     1
102
RTVSPropertyOp44
 70
     1
102
RTVSPropertyOp45
 70
     1
102
RTVSPropertyOp46
 70
     1
102
RTVSPropertyOp47
 70
     1
102
RTVSPropertyOp48
 70
     1
102
RTVSPropertyOp49
 70
     1
102
RTVSPropertyOp50
 70
     1
102
RTVSPropertyOp51
 70
     0
102
RTVSPropertyOp52
 70
     0
102
RTVSPropertyOp53
 70
     1
102
RTVSPropertyOp54
 70
     1
102
RTVSPropertyOp55
 70
     1
102
RTVSPropertyOp56
 70
     1
102
RTVSPropertyOp57
 70
     1
102
RTVSPost2010Prop28
280
     0
102
RTVSPost2010PropOp28
 70
     1
102
RTVSPost2010Prop29
280
     1
102
RTVSPost2010PropOp29
 70
     1
102
RTVSPost2010Prop30
280
     1
102
RTVSPost2010PropOp30
 70
     1
102
RTVSPost2010Prop31
280
     0
102
RTVSPost2010PropOp31
 70
     1
102
RTVSPost2010Prop32
280
     0
102
RTVSPost2010PropOp32
 70
     1
102
RTVSPost2010Prop33
280
     0
102
RTVSPost2010PropOp33
 70
     1
102
RTVSPost2010Prop34
280
     0
102
RTVSPost2010PropOp34
 70
     1
102
RTVSPost2010Prop35
280
     0
102
RTVSPost2010PropOp35
 70
     1
102
RTVSPost2010Prop36
280
     0
102
RTVSPost2010PropOp36
 70
     1
102
RTVSPost2010Prop37
 90
       50
102
RTVSPost2010PropOp37
 70
     1
102
RTVSPost2010Prop38
140
0.0
102
RTVSPost2010PropOp38
 70
     1
102
RTVSPost2010Prop39
140
1.0
102
RTVSPost2010PropOp39
 70
     1
102
RTVSPost2010Prop40
 90
        0
102
RTVSPost2010PropOp40
 70
     1
102
RTVSPost2010Prop41ColorIndex
 90
       18
102
RTVSPost2010Prop41ColorRGB
 90
        0
102
RTVSPost2010PropOp41
 70
     1
102
RTVSPost2010Prop42
 90
       50
102
RTVSPost2010PropOp42
 70
     1
102
RTVSPost2010Prop43
 90
        3
102
RTVSPost2010PropOp43
 70
     1
102
RTVSPost2010Prop44ColorIndex
 90
        5
102
RTVSPost2010Prop44ColorRGB
 90
      255
102
RTVSPost2010PropOp44
 70
     1
102
RTVSPost2010Prop45
280
     0
102
RTVSPost2010PropOp45
 70
     1
102
RTVSPost2010Prop46
 90
       50
102
RTVSPost2010PropOp46
 70
     1
102
RTVSPost2010Prop47
 90
       50
102
RTVSPost2010PropOp47
 70
     1
102
RTVSPost2010Prop48
 90
       50
102
RTVSPost2010PropOp48
 70
     1
102
RTVSPost2010Prop49
280
     0
102
RTVSPost2010PropOp49
 70
     1
102
RTVSPost2010Prop50
 90
       50
102
RTVSPost2010PropOp50
 70
     1
102
RTVSPost2010Prop51ColorIndex
 90
      256
102
RTVSPost2010Prop51ColorRGB
 90
-16777216
102
RTVSPost2010PropOp51
 70
     0
102
RTVSPost2010Prop52
140
1.0
102
RTVSPost2010PropOp52
 70
     0
102
RTVSPost2010Prop53
 90
        2
102
RTVSPost2010PropOp53
 70
     1
102
RTVSPost2010Prop54
  1
strokes_ogs.tif
102
RTVSPost2010PropOp54
 70
     1
102
RTVSPost2010Prop55
280
     0
102
RTVSPost2010PropOp55
 70
     1
102
RTVSPost2010Prop56
140
1.0
102
RTVSPost2010PropOp56
 70
     1
102
RTVSPost2010Prop57
140
1.0
102
RTVSPost2010PropOp57
 70
     1
  0
XRECORD
  5
19D
102
{ACAD_REACTORS
330
19C
102
}
330
19C
100
AcDbXrecord
280
     1
102
RTVSPropertyOp0
 70
     1
102
RTVSPropertyOp1
 70
     1
102
RTVSPropertyOp2
 70
     1
102
RTVSPropertyOp3
 70
     1
102
RTVSPropertyOp4
 70
     1
102
RTVSPropertyOp5
 70
     1
102
RTVSPropertyOp6
 70
     1
102
RTVSPropertyOp7
 70
     1
102
RTVSPropertyOp8
 70
     1
102
RTVSPropertyOp9
 70
     1
102
RTVSPropertyOp10
 70
     1
102
RTVSPropertyOp11
 70
     1
102
RTVSPropertyOp12
 70
     1
102
RTVSPropertyOp13
 70
     1
102
RTVSPropertyOp14
 70
     1
102
RTVSPropertyOp15
 70
     1
102
RTVSPropertyOp16
 70
     1
102
RTVSPropertyOp17
 70
     1
102
RTVSPropertyOp18
 70
     1
102
RTVSPropertyOp19
 70
     1
102
RTVSPropertyOp20
 70
     1
102
RTVSPropertyOp21
 70
     1
102
RTVSPropertyOp22
 70
     1
102
RTVSPropertyOp23
 70
     1
102
RTVSPropertyOp24
 70
     1
102
RTVSPropertyOp25
 70
     1
102
RTVSPropertyOp26
 70
     1
102
RTVSPropertyOp27
 70
     1
102
RTVSPropertyOp28
 70
     1
102
RTVSPropertyOp29
 70
     1
102
RTVSPropertyOp30
 70
     1
102
RTVSPropertyOp31
 70
     1
102
RTVSPropertyOp32
 70
     1
102
RTVSPropertyOp33
 70
     1
102
RTVSPropertyOp34
 70
     1
102
RTVSPropertyOp35
 70
     1
102
RTVSPropertyOp36
 70
     1
102
RTVSPropertyOp37
 70
     1
102
RTVSPropertyOp38
 70
     1
102
RTVSPropertyOp39
 70
     1
102
RTVSPropertyOp40
 70
     1
102
RTVSPropertyOp41
 70
     1
102
RTVSPropertyOp42
 70
     1
102
RTVSPropertyOp43
 70
     1
102
RTVSPropertyOp44
 70
     1
102
RTVSPropertyOp45
 70
     1
102
RTVSPropertyOp46
 70
     1
102
RTVSPropertyOp47
 70
     1
102
RTVSPropertyOp48
 70
     1
102
RTVSPropertyOp49
 70
     1
102
RTVSPropertyOp50
 70
     1
102
RTVSPropertyOp51
 70
     0
102
RTVSPropertyOp52
 70
     0
102
RTVSPropertyOp53
 70
     1
102
RTVSPropertyOp54
 70
     1
102
RTVSPropertyOp55
 70
     1
102
RTVSPropertyOp56
 70
     1
102
RTVSPropertyOp57
 70
     1
102
RTVSPost2010Prop28
280
     0
102
RTVSPost2010PropOp28
 70
     1
102
RTVSPost2010Prop29
280
     1
102
RTVSPost2010PropOp29
 70
     1
102
RTVSPost2010Prop30
280
     1
102
RTVSPost2010PropOp30
 70
     1
102
RTVSPost2010Prop31
280
     0
102
RTVSPost2010PropOp31
 70
     1
102
RTVSPost2010Prop32
280
     0
102
RTVSPost2010PropOp32
 70
     1
102
RTVSPost2010Prop33
280
     0
102
RTVSPost2010PropOp33
 70
     1
102
RTVSPost2010Prop34
280
     0
102
RTVSPost2010PropOp34
 70
     1
102
RTVSPost2010Prop35
280
     0
102
RTVSPost2010PropOp35
 70
     1
102
RTVSPost2010Prop36
280
     0
102
RTVSPost2010PropOp36
 70
     1
102
RTVSPost2010Prop37
 90
       50
102
RTVSPost2010PropOp37
 70
     1
102
RTVSPost2010Prop38
140
0.0
102
RTVSPost2010PropOp38
 70
     1
102
RTVSPost2010Prop39
140
1.0
102
RTVSPost2010PropOp39
 70
     1
102
RTVSPost2010Prop40
 90
        0
102
RTVSPost2010PropOp40
 70
     1
102
RTVSPost2010Prop41ColorIndex
 90
       18
102
RTVSPost2010Prop41ColorRGB
 90
        0
102
RTVSPost2010PropOp41
 70
     1
102
RTVSPost2010Prop42
 90
       50
102
RTVSPost2010PropOp42
 70
     1
102
RTVSPost2010Prop43
 90
        3
102
RTVSPost2010PropOp43
 70
     1
102
RTVSPost2010Prop44ColorIndex
 90
        5
102
RTVSPost2010Prop44ColorRGB
 90
      255
102
RTVSPost2010PropOp44
 70
     1
102
RTVSPost2010Prop45
280
     0
102
RTVSPost2010PropOp45
 70
     1
102
RTVSPost2010Prop46
 90
       50
102
RTVSPost2010PropOp46
 70
     1
102
RTVSPost2010Prop47
 90
       50
102
RTVSPost2010PropOp47
 70
     1
102
RTVSPost2010Prop48
 90
       50
102
RTVSPost2010PropOp48
 70
     1
102
RTVSPost2010Prop49
280
     0
102
RTVSPost2010PropOp49
 70
     1
102
RTVSPost2010Prop50
 90
       50
102
RTVSPost2010PropOp50
 70
     1
102
RTVSPost2010Prop51ColorIndex
 90
      256
102
RTVSPost2010Prop51ColorRGB
 90
-16777216
102
RTVSPost2010PropOp51
 70
     0
102
RTVSPost2010Prop52
140
1.0
102
RTVSPost2010PropOp52
 70
     0
102
RTVSPost2010Prop53
 90
        2
102
RTVSPost2010PropOp53
 70
     1
102
RTVSPost2010Prop54
  1
strokes_ogs.tif
102
RTVSPost2010PropOp54
 70
     1
102
RTVSPost2010Prop55
280
     0
102
RTVSPost2010PropOp55
 70
     1
102
RTVSPost2010Prop56
140
1.0
102
RTVSPost2010PropOp56
 70
     1
102
RTVSPost2010Prop57
140
1.0
102
RTVSPost2010PropOp57
 70
     1
  0
XRECORD
  5
19F
102
{ACAD_REACTORS
330
19E
102
}
330
19E
100
AcDbXrecord
280
     1
102
RTVSPropertyOp0
 70
     1
102
RTVSPropertyOp1
 70
     1
102
RTVSPropertyOp2
 70
     1
102
RTVSPropertyOp3
 70
     1
102
RTVSPropertyOp4
 70
     1
102
RTVSPropertyOp5
 70
     1
102
RTVSPropertyOp6
 70
     1
102
RTVSPropertyOp7
 70
     1
102
RTVSPropertyOp8
 70
     1
102
RTVSPropertyOp9
 70
     1
102
RTVSPropertyOp10
 70
     1
102
RTVSPropertyOp11
 70
     1
102
RTVSPropertyOp12
 70
     1
102
RTVSPropertyOp13
 70
     1
102
RTVSPropertyOp14
 70
     1
102
RTVSPropertyOp15
 70
     1
102
RTVSPropertyOp16
 70
     1
102
RTVSPropertyOp17
 70
     1
102
RTVSPropertyOp18
 70
     1
102
RTVSPropertyOp19
 70
     1
102
RTVSPropertyOp20
 70
     1
102
RTVSPropertyOp21
 70
     1
102
RTVSPropertyOp22
 70
     1
102
RTVSPropertyOp23
 70
     1
102
RTVSPropertyOp24
 70
     1
102
RTVSPropertyOp25
 70
     1
102
RTVSPropertyOp26
 70
     1
102
RTVSPropertyOp27
 70
     1
102
RTVSPropertyOp28
 70
     1
102
RTVSPropertyOp29
 70
     1
102
RTVSPropertyOp30
 70
     1
102
RTVSPropertyOp31
 70
     1
102
RTVSPropertyOp32
 70
     1
102
RTVSPropertyOp33
 70
     1
102
RTVSPropertyOp34
 70
     1
102
RTVSPropertyOp35
 70
     1
102
RTVSPropertyOp36
 70
     1
102
RTVSPropertyOp37
 70
     1
102
RTVSPropertyOp38
 70
     1
102
RTVSPropertyOp39
 70
     1
102
RTVSPropertyOp40
 70
     1
102
RTVSPropertyOp41
 70
     1
102
RTVSPropertyOp42
 70
     1
102
RTVSPropertyOp43
 70
     1
102
RTVSPropertyOp44
 70
     1
102
RTVSPropertyOp45
 70
     1
102
RTVSPropertyOp46
 70
     1
102
RTVSPropertyOp47
 70
     1
102
RTVSPropertyOp48
 70
     1
102
RTVSPropertyOp49
 70
     1
102
RTVSPropertyOp50
 70
     1
102
RTVSPropertyOp51
 70
     0
102
RTVSPropertyOp52
 70
     0
102
RTVSPropertyOp53
 70
     1
102
RTVSPropertyOp54
 70
     1
102
RTVSPropertyOp55
 70
     1
102
RTVSPropertyOp56
 70
     1
102
RTVSPropertyOp57
 70
     1
102
RTVSPost2010Prop28
280
     0
102
RTVSPost2010PropOp28
 70
     1
102
RTVSPost2010Prop29
280
     1
102
RTVSPost2010PropOp29
 70
     1
102
RTVSPost2010Prop30
280
     1
102
RTVSPost2010PropOp30
 70
     1
102
RTVSPost2010Prop31
280
     0
102
RTVSPost2010PropOp31
 70
     1
102
RTVSPost2010Prop32
280
     0
102
RTVSPost2010PropOp32
 70
     1
102
RTVSPost2010Prop33
280
     0
102
RTVSPost2010PropOp33
 70
     1
102
RTVSPost2010Prop34
280
     0
102
RTVSPost2010PropOp34
 70
     1
102
RTVSPost2010Prop35
280
     0
102
RTVSPost2010PropOp35
 70
     1
102
RTVSPost2010Prop36
280
     0
102
RTVSPost2010PropOp36
 70
     1
102
RTVSPost2010Prop37
 90
       50
102
RTVSPost2010PropOp37
 70
     1
102
RTVSPost2010Prop38
140
0.0
102
RTVSPost2010PropOp38
 70
     1
102
RTVSPost2010Prop39
140
1.0
102
RTVSPost2010PropOp39
 70
     1
102
RTVSPost2010Prop40
 90
        0
102
RTVSPost2010PropOp40
 70
     1
102
RTVSPost2010Prop41ColorIndex
 90
       18
102
RTVSPost2010Prop41ColorRGB
 90
        0
102
RTVSPost2010PropOp41
 70
     1
102
RTVSPost2010Prop42
 90
       50
102
RTVSPost2010PropOp42
 70
     1
102
RTVSPost2010Prop43
 90
        3
102
RTVSPost2010PropOp43
 70
     1
102
RTVSPost2010Prop44ColorIndex
 90
        5
102
RTVSPost2010Prop44ColorRGB
 90
      255
102
RTVSPost2010PropOp44
 70
     1
102
RTVSPost2010Prop45
280
     0
102
RTVSPost2010PropOp45
 70
     1
102
RTVSPost2010Prop46
 90
       50
102
RTVSPost2010PropOp46
 70
     1
102
RTVSPost2010Prop47
 90
       50
102
RTVSPost2010PropOp47
 70
     1
102
RTVSPost2010Prop48
 90
       50
102
RTVSPost2010PropOp48
 70
     1
102
RTVSPost2010Prop49
280
     0
102
RTVSPost2010PropOp49
 70
     1
102
RTVSPost2010Prop50
 90
       50
102
RTVSPost2010PropOp50
 70
     1
102
RTVSPost2010Prop51ColorIndex
 90
      256
102
RTVSPost2010Prop51ColorRGB
 90
-16777216
102
RTVSPost2010PropOp51
 70
     0
102
RTVSPost2010Prop52
140
1.0
102
RTVSPost2010PropOp52
 70
     0
102
RTVSPost2010Prop53
 90
        2
102
RTVSPost2010PropOp53
 70
     1
102
RTVSPost2010Prop54
  1
strokes_ogs.tif
102
RTVSPost2010PropOp54
 70
     1
102
RTVSPost2010Prop55
280
     0
102
RTVSPost2010PropOp55
 70
     1
102
RTVSPost2010Prop56
140
1.0
102
RTVSPost2010PropOp56
 70
     1
102
RTVSPost2010Prop57
140
1.0
102
RTVSPost2010PropOp57
 70
     1
  0
XRECORD
  5
1A1
102
{ACAD_REACTORS
330
1A0
102
}
330
1A0
100
AcDbXrecord
280
     1
102
RTVSPropertyOp0
 70
     1
102
RTVSPropertyOp1
 70
     1
102
RTVSPropertyOp2
 70
     1
102
RTVSPropertyOp3
 70
     1
102
RTVSPropertyOp4
 70
     1
102
RTVSPropertyOp5
 70
     1
102
RTVSPropertyOp6
 70
     1
102
RTVSPropertyOp7
 70
     1
102
RTVSPropertyOp8
 70
     1
102
RTVSPropertyOp9
 70
     1
102
RTVSPropertyOp10
 70
     1
102
RTVSPropertyOp11
 70
     1
102
RTVSPropertyOp12
 70
     1
102
RTVSPropertyOp13
 70
     1
102
RTVSPropertyOp14
 70
     1
102
RTVSPropertyOp15
 70
     1
102
RTVSPropertyOp16
 70
     1
102
RTVSPropertyOp17
 70
     1
102
RTVSPropertyOp18
 70
     1
102
RTVSPropertyOp19
 70
     1
102
RTVSPropertyOp20
 70
     1
102
RTVSPropertyOp21
 70
     1
102
RTVSPropertyOp22
 70
     1
102
RTVSPropertyOp23
 70
     1
102
RTVSPropertyOp24
 70
     1
102
RTVSPropertyOp25
 70
     1
102
RTVSPropertyOp26
 70
     1
102
RTVSPropertyOp27
 70
     1
102
RTVSPropertyOp28
 70
     1
102
RTVSPropertyOp29
 70
     1
102
RTVSPropertyOp30
 70
     1
102
RTVSPropertyOp31
 70
     1
102
RTVSPropertyOp32
 70
     1
102
RTVSPropertyOp33
 70
     1
102
RTVSPropertyOp34
 70
     1
102
RTVSPropertyOp35
 70
     1
102
RTVSPropertyOp36
 70
     1
102
RTVSPropertyOp37
 70
     1
102
RTVSPropertyOp38
 70
     1
102
RTVSPropertyOp39
 70
     1
102
RTVSPropertyOp40
 70
     1
102
RTVSPropertyOp41
 70
     1
102
RTVSPropertyOp42
 70
     1
102
RTVSPropertyOp43
 70
     1
102
RTVSPropertyOp44
 70
     1
102
RTVSPropertyOp45
 70
     1
102
RTVSPropertyOp46
 70
     1
102
RTVSPropertyOp47
 70
     1
102
RTVSPropertyOp48
 70
     1
102
RTVSPropertyOp49
 70
     1
102
RTVSPropertyOp50
 70
     1
102
RTVSPropertyOp51
 70
     0
102
RTVSPropertyOp52
 70
     0
102
RTVSPropertyOp53
 70
     1
102
RTVSPropertyOp54
 70
     1
102
RTVSPropertyOp55
 70
     1
102
RTVSPropertyOp56
 70
     1
102
RTVSPropertyOp57
 70
     1
102
RTVSPost2010Prop28
280
     0
102
RTVSPost2010PropOp28
 70
     1
102
RTVSPost2010Prop29
280
     1
102
RTVSPost2010PropOp29
 70
     1
102
RTVSPost2010Prop30
280
     1
102
RTVSPost2010PropOp30
 70
     1
102
RTVSPost2010Prop31
280
     0
102
RTVSPost2010PropOp31
 70
     1
102
RTVSPost2010Prop32
280
     0
102
RTVSPost2010PropOp32
 70
     1
102
RTVSPost2010Prop33
280
     0
102
RTVSPost2010PropOp33
 70
     1
102
RTVSPost2010Prop34
280
     0
102
RTVSPost2010PropOp34
 70
     1
102
RTVSPost2010Prop35
280
     0
102
RTVSPost2010PropOp35
 70
     1
102
RTVSPost2010Prop36
280
     0
102
RTVSPost2010PropOp36
 70
     1
102
RTVSPost2010Prop37
 90
       50
102
RTVSPost2010PropOp37
 70
     1
102
RTVSPost2010Prop38
140
0.0
102
RTVSPost2010PropOp38
 70
     1
102
RTVSPost2010Prop39
140
1.0
102
RTVSPost2010PropOp39
 70
     1
102
RTVSPost2010Prop40
 90
        0
102
RTVSPost2010PropOp40
 70
     1
102
RTVSPost2010Prop41ColorIndex
 90
       18
102
RTVSPost2010Prop41ColorRGB
 90
        0
102
RTVSPost2010PropOp41
 70
     1
102
RTVSPost2010Prop42
 90
       50
102
RTVSPost2010PropOp42
 70
     1
102
RTVSPost2010Prop43
 90
        3
102
RTVSPost2010PropOp43
 70
     1
102
RTVSPost2010Prop44ColorIndex
 90
        5
102
RTVSPost2010Prop44ColorRGB
 90
      255
102
RTVSPost2010PropOp44
 70
     1
102
RTVSPost2010Prop45
280
     0
102
RTVSPost2010PropOp45
 70
     1
102
RTVSPost2010Prop46
 90
       50
102
RTVSPost2010PropOp46
 70
     1
102
RTVSPost2010Prop47
 90
       50
102
RTVSPost2010PropOp47
 70
     1
102
RTVSPost2010Prop48
 90
       50
102
RTVSPost2010PropOp48
 70
     1
102
RTVSPost2010Prop49
280
     0
102
RTVSPost2010PropOp49
 70
     1
102
RTVSPost2010Prop50
 90
       50
102
RTVSPost2010PropOp50
 70
     1
102
RTVSPost2010Prop51ColorIndex
 90
      256
102
RTVSPost2010Prop51ColorRGB
 90
-16777216
102
RTVSPost2010PropOp51
 70
     0
102
RTVSPost2010Prop52
140
1.0
102
RTVSPost2010PropOp52
 70
     0
102
RTVSPost2010Prop53
 90
        2
102
RTVSPost2010PropOp53
 70
     1
102
RTVSPost2010Prop54
  1
strokes_ogs.tif
102
RTVSPost2010PropOp54
 70
     1
102
RTVSPost2010Prop55
280
     0
102
RTVSPost2010PropOp55
 70
     1
102
RTVSPost2010Prop56
140
1.0
102
RTVSPost2010PropOp56
 70
     1
102
RTVSPost2010Prop57
140
1.0
102
RTVSPost2010PropOp57
 70
     1
  0
XRECORD
  5
1A3
102
{ACAD_REACTORS
330
1A2
102
}
330
1A2
100
AcDbXrecord
280
     1
102
RTVSPropertyOp0
 70
     1
102
RTVSPropertyOp1
 70
     1
102
RTVSPropertyOp2
 70
     1
102
RTVSPropertyOp3
 70
     1
102
RTVSPropertyOp4
 70
     1
102
RTVSPropertyOp5
 70
     1
102
RTVSPropertyOp6
 70
     1
102
RTVSPropertyOp7
 70
     1
102
RTVSPropertyOp8
 70
     1
102
RTVSPropertyOp9
 70
     1
102
RTVSPropertyOp10
 70
     1
102
RTVSPropertyOp11
 70
     1
102
RTVSPropertyOp12
 70
     1
102
RTVSPropertyOp13
 70
     1
102
RTVSPropertyOp14
 70
     1
102
RTVSPropertyOp15
 70
     1
102
RTVSPropertyOp16
 70
     1
102
RTVSPropertyOp17
 70
     1
102
RTVSPropertyOp18
 70
     1
102
RTVSPropertyOp19
 70
     1
102
RTVSPropertyOp20
 70
     1
102
RTVSPropertyOp21
 70
     1
102
RTVSPropertyOp22
 70
     1
102
RTVSPropertyOp23
 70
     1
102
RTVSPropertyOp24
 70
     1
102
RTVSPropertyOp25
 70
     1
102
RTVSPropertyOp26
 70
     1
102
RTVSPropertyOp27
 70
     1
102
RTVSPropertyOp28
 70
     1
102
RTVSPropertyOp29
 70
     1
102
RTVSPropertyOp30
 70
     1
102
RTVSPropertyOp31
 70
     1
102
RTVSPropertyOp32
 70
     1
102
RTVSPropertyOp33
 70
     1
102
RTVSPropertyOp34
 70
     1
102
RTVSPropertyOp35
 70
     1
102
RTVSPropertyOp36
 70
     1
102
RTVSPropertyOp37
 70
     1
102
RTVSPropertyOp38
 70
     1
102
RTVSPropertyOp39
 70
     1
102
RTVSPropertyOp40
 70
     1
102
RTVSPropertyOp41
 70
     1
102
RTVSPropertyOp42
 70
     1
102
RTVSPropertyOp43
 70
     1
102
RTVSPropertyOp44
 70
     1
102
RTVSPropertyOp45
 70
     1
102
RTVSPropertyOp46
 70
     1
102
RTVSPropertyOp47
 70
     1
102
RTVSPropertyOp48
 70
     1
102
RTVSPropertyOp49
 70
     1
102
RTVSPropertyOp50
 70
     1
102
RTVSPropertyOp51
 70
     0
102
RTVSPropertyOp52
 70
     0
102
RTVSPropertyOp53
 70
     1
102
RTVSPropertyOp54
 70
     1
102
RTVSPropertyOp55
 70
     1
102
RTVSPropertyOp56
 70
     1
102
RTVSPropertyOp57
 70
     1
102
RTVSPost2010Prop28
280
     0
102
RTVSPost2010PropOp28
 70
     1
102
RTVSPost2010Prop29
280
     1
102
RTVSPost2010PropOp29
 70
     1
102
RTVSPost2010Prop30
280
     1
102
RTVSPost2010PropOp30
 70
     1
102
RTVSPost2010Prop31
280
     0
102
RTVSPost2010PropOp31
 70
     1
102
RTVSPost2010Prop32
280
     0
102
RTVSPost2010PropOp32
 70
     1
102
RTVSPost2010Prop33
280
     0
102
RTVSPost2010PropOp33
 70
     1
102
RTVSPost2010Prop34
280
     0
102
RTVSPost2010PropOp34
 70
     1
102
RTVSPost2010Prop35
280
     0
102
RTVSPost2010PropOp35
 70
     1
102
RTVSPost2010Prop36
280
     0
102
RTVSPost2010PropOp36
 70
     1
102
RTVSPost2010Prop37
 90
       50
102
RTVSPost2010PropOp37
 70
     1
102
RTVSPost2010Prop38
140
0.0
102
RTVSPost2010PropOp38
 70
     1
102
RTVSPost2010Prop39
140
1.0
102
RTVSPost2010PropOp39
 70
     1
102
RTVSPost2010Prop40
 90
        0
102
RTVSPost2010PropOp40
 70
     1
102
RTVSPost2010Prop41ColorIndex
 90
       18
102
RTVSPost2010Prop41ColorRGB
 90
        0
102
RTVSPost2010PropOp41
 70
     1
102
RTVSPost2010Prop42
 90
       50
102
RTVSPost2010PropOp42
 70
     1
102
RTVSPost2010Prop43
 90
        3
102
RTVSPost2010PropOp43
 70
     1
102
RTVSPost2010Prop44ColorIndex
 90
        5
102
RTVSPost2010Prop44ColorRGB
 90
      255
102
RTVSPost2010PropOp44
 70
     1
102
RTVSPost2010Prop45
280
     0
102
RTVSPost2010PropOp45
 70
     1
102
RTVSPost2010Prop46
 90
       50
102
RTVSPost2010PropOp46
 70
     1
102
RTVSPost2010Prop47
 90
       50
102
RTVSPost2010PropOp47
 70
     1
102
RTVSPost2010Prop48
 90
       50
102
RTVSPost2010PropOp48
 70
     1
102
RTVSPost2010Prop49
280
     0
102
RTVSPost2010PropOp49
 70
     1
102
RTVSPost2010Prop50
 90
       50
102
RTVSPost2010PropOp50
 70
     1
102
RTVSPost2010Prop51ColorIndex
 90
      256
102
RTVSPost2010Prop51ColorRGB
 90
-16777216
102
RTVSPost2010PropOp51
 70
     0
102
RTVSPost2010Prop52
140
1.0
102
RTVSPost2010PropOp52
 70
     0
102
RTVSPost2010Prop53
 90
        2
102
RTVSPost2010PropOp53
 70
     1
102
RTVSPost2010Prop54
  1
strokes_ogs.tif
102
RTVSPost2010PropOp54
 70
     1
102
RTVSPost2010Prop55
280
     0
102
RTVSPost2010PropOp55
 70
     1
102
RTVSPost2010Prop56
140
1.0
102
RTVSPost2010PropOp56
 70
     1
102
RTVSPost2010Prop57
140
1.0
102
RTVSPost2010PropOp57
 70
     1
  0
XRECORD
  5
1A9
102
{ACAD_REACTORS
330
1A8
102
}
330
1A8
100
AcDbXrecord
280
     1
102
RTVSPropertyOp0
 70
     1
102
RTVSPropertyOp1
 70
     1
102
RTVSPropertyOp2
 70
     1
102
RTVSPropertyOp3
 70
     1
102
RTVSPropertyOp4
 70
     1
102
RTVSPropertyOp5
 70
     1
102
RTVSPropertyOp6
 70
     1
102
RTVSPropertyOp7
 70
     1
102
RTVSPropertyOp8
 70
     1
102
RTVSPropertyOp9
 70
     1
102
RTVSPropertyOp10
 70
     1
102
RTVSPropertyOp11
 70
     1
102
RTVSPropertyOp12
 70
     1
102
RTVSPropertyOp13
 70
     1
102
RTVSPropertyOp14
 70
     1
102
RTVSPropertyOp15
 70
     1
102
RTVSPropertyOp16
 70
     1
102
RTVSPropertyOp17
 70
     1
102
RTVSPropertyOp18
 70
     1
102
RTVSPropertyOp19
 70
     1
102
RTVSPropertyOp20
 70
     1
102
RTVSPropertyOp21
 70
     1
102
RTVSPropertyOp22
 70
     1
102
RTVSPropertyOp23
 70
     1
102
RTVSPropertyOp24
 70
     1
102
RTVSPropertyOp25
 70
     1
102
RTVSPropertyOp26
 70
     1
102
RTVSPropertyOp27
 70
     1
102
RTVSPropertyOp28
 70
     1
102
RTVSPropertyOp29
 70
     1
102
RTVSPropertyOp30
 70
     1
102
RTVSPropertyOp31
 70
     1
102
RTVSPropertyOp32
 70
     1
102
RTVSPropertyOp33
 70
     1
102
RTVSPropertyOp34
 70
     1
102
RTVSPropertyOp35
 70
     1
102
RTVSPropertyOp36
 70
     1
102
RTVSPropertyOp37
 70
     1
102
RTVSPropertyOp38
 70
     1
102
RTVSPropertyOp39
 70
     1
102
RTVSPropertyOp40
 70
     1
102
RTVSPropertyOp41
 70
     1
102
RTVSPropertyOp42
 70
     1
102
RTVSPropertyOp43
 70
     1
102
RTVSPropertyOp44
 70
     1
102
RTVSPropertyOp45
 70
     1
102
RTVSPropertyOp46
 70
     1
102
RTVSPropertyOp47
 70
     1
102
RTVSPropertyOp48
 70
     1
102
RTVSPropertyOp49
 70
     1
102
RTVSPropertyOp50
 70
     1
102
RTVSPropertyOp51
 70
     0
102
RTVSPropertyOp52
 70
     0
102
RTVSPropertyOp53
 70
     1
102
RTVSPropertyOp54
 70
     1
102
RTVSPropertyOp55
 70
     1
102
RTVSPropertyOp56
 70
     1
102
RTVSPropertyOp57
 70
     1
102
RTVSPost2010Prop28
280
     0
102
RTVSPost2010PropOp28
 70
     1
102
RTVSPost2010Prop29
280
     1
102
RTVSPost2010PropOp29
 70
     1
102
RTVSPost2010Prop30
280
     1
102
RTVSPost2010PropOp30
 70
     1
102
RTVSPost2010Prop31
280
     0
102
RTVSPost2010PropOp31
 70
     1
102
RTVSPost2010Prop32
280
     0
102
RTVSPost2010PropOp32
 70
     1
102
RTVSPost2010Prop33
280
     0
102
RTVSPost2010PropOp33
 70
     1
102
RTVSPost2010Prop34
280
     0
102
RTVSPost2010PropOp34
 70
     1
102
RTVSPost2010Prop35
280
     0
102
RTVSPost2010PropOp35
 70
     1
102
RTVSPost2010Prop36
280
     0
102
RTVSPost2010PropOp36
 70
     1
102
RTVSPost2010Prop37
 90
       50
102
RTVSPost2010PropOp37
 70
     1
102
RTVSPost2010Prop38
140
0.0
102
RTVSPost2010PropOp38
 70
     1
102
RTVSPost2010Prop39
140
1.0
102
RTVSPost2010PropOp39
 70
     1
102
RTVSPost2010Prop40
 90
        0
102
RTVSPost2010PropOp40
 70
     1
102
RTVSPost2010Prop41ColorIndex
 90
       18
102
RTVSPost2010Prop41ColorRGB
 90
        0
102
RTVSPost2010PropOp41
 70
     1
102
RTVSPost2010Prop42
 90
       50
102
RTVSPost2010PropOp42
 70
     1
102
RTVSPost2010Prop43
 90
        3
102
RTVSPost2010PropOp43
 70
     1
102
RTVSPost2010Prop44ColorIndex
 90
        5
102
RTVSPost2010Prop44ColorRGB
 90
      255
102
RTVSPost2010PropOp44
 70
     1
102
RTVSPost2010Prop45
280
     0
102
RTVSPost2010PropOp45
 70
     1
102
RTVSPost2010Prop46
 90
       50
102
RTVSPost2010PropOp46
 70
     1
102
RTVSPost2010Prop47
 90
       50
102
RTVSPost2010PropOp47
 70
     1
102
RTVSPost2010Prop48
 90
       50
102
RTVSPost2010PropOp48
 70
     1
102
RTVSPost2010Prop49
280
     0
102
RTVSPost2010PropOp49
 70
     1
102
RTVSPost2010Prop50
 90
       50
102
RTVSPost2010PropOp50
 70
     1
102
RTVSPost2010Prop51ColorIndex
 90
      256
102
RTVSPost2010Prop51ColorRGB
 90
-16777216
102
RTVSPost2010PropOp51
 70
     0
102
RTVSPost2010Prop52
140
1.0
102
RTVSPost2010PropOp52
 70
     0
102
RTVSPost2010Prop53
 90
        2
102
RTVSPost2010PropOp53
 70
     1
102
RTVSPost2010Prop54
  1
strokes_ogs.tif
102
RTVSPost2010PropOp54
 70
     1
102
RTVSPost2010Prop55
280
     0
102
RTVSPost2010PropOp55
 70
     1
102
RTVSPost2010Prop56
140
1.0
102
RTVSPost2010PropOp56
 70
     1
102
RTVSPost2010Prop57
140
1.0
102
RTVSPost2010PropOp57
 70
     1
  0
XRECORD
  5
1BD
102
{ACAD_REACTORS
330
1BC
102
}
330
1BC
100
AcDbXrecord
280
     1
102
RTVSPropertyOp0
 70
     0
102
RTVSPropertyOp1
 70
     0
102
RTVSPropertyOp2
 70
     0
102
RTVSPropertyOp3
 70
     0
102
RTVSPropertyOp4
 70
     0
102
RTVSPropertyOp5
 70
     0
102
RTVSPropertyOp6
 70
     0
102
RTVSPropertyOp7
 70
     0
102
RTVSPropertyOp8
 70
     0
102
RTVSPropertyOp9
 70
     0
102
RTVSPropertyOp10
 70
     0
102
RTVSPropertyOp11
 70
     0
102
RTVSPropertyOp12
 70
     0
102
RTVSPropertyOp13
 70
     0
102
RTVSPropertyOp14
 70
     2
102
RTVSPropertyOp15
 70
     0
102
RTVSPropertyOp16
 70
     0
102
RTVSPropertyOp17
 70
     0
102
RTVSPropertyOp18
 70
     0
102
RTVSPropertyOp19
 70
     0
102
RTVSPropertyOp20
 70
     0
102
RTVSPropertyOp21
 70
     0
102
RTVSPropertyOp22
 70
     0
102
RTVSPropertyOp23
 70
     0
102
RTVSPropertyOp24
 70
     0
102
RTVSPropertyOp25
 70
     0
102
RTVSPropertyOp26
 70
     0
102
RTVSPropertyOp27
 70
     0
102
RTVSPropertyOp28
 70
     0
102
RTVSPropertyOp29
 70
     0
102
RTVSPropertyOp30
 70
     0
102
RTVSPropertyOp31
 70
     0
102
RTVSPropertyOp32
 70
     0
102
RTVSPropertyOp33
 70
     0
102
RTVSPropertyOp34
 70
     0
102
RTVSPropertyOp35
 70
     0
102
RTVSPropertyOp36
 70
     0
102
RTVSPropertyOp37
 70
     0
102
RTVSPropertyOp38
 70
     0
102
RTVSPropertyOp39
 70
     0
102
RTVSPropertyOp40
 70
     0
102
RTVSPropertyOp41
 70
     0
102
RTVSPropertyOp42
 70
     0
102
RTVSPropertyOp43
 70
     0
102
RTVSPropertyOp44
 70
     0
102
RTVSPropertyOp45
 70
     0
102
RTVSPropertyOp46
 70
     0
102
RTVSPropertyOp47
 70
     0
102
RTVSPropertyOp48
 70
     0
102
RTVSPropertyOp49
 70
     0
102
RTVSPropertyOp50
 70
     0
102
RTVSPropertyOp51
 70
     0
102
RTVSPropertyOp52
 70
     0
102
RTVSPropertyOp53
 70
     0
102
RTVSPropertyOp54
 70
     0
102
RTVSPropertyOp55
 70
     0
102
RTVSPropertyOp56
 70
     0
102
RTVSPropertyOp57
 70
     0
102
RTVSPost2010Prop28
280
     0
102
RTVSPost2010PropOp28
 70
     0
102
RTVSPost2010Prop29
280
     1
102
RTVSPost2010PropOp29
 70
     0
102
RTVSPost2010Prop30
280
     1
102
RTVSPost2010PropOp30
 70
     0
102
RTVSPost2010Prop31
280
     0
102
RTVSPost2010PropOp31
 70
     0
102
RTVSPost2010Prop32
280
     0
102
RTVSPost2010PropOp32
 70
     0
102
RTVSPost2010Prop33
280
     0
102
RTVSPost2010PropOp33
 70
     0
102
RTVSPost2010Prop34
280
     0
102
RTVSPost2010PropOp34
 70
     0
102
RTVSPost2010Prop35
280
     0
102
RTVSPost2010PropOp35
 70
     0
102
RTVSPost2010Prop36
280
     0
102
RTVSPost2010PropOp36
 70
     0
102
RTVSPost2010Prop37
 90
       50
102
RTVSPost2010PropOp37
 70
     0
102
RTVSPost2010Prop38
140
0.0
102
RTVSPost2010PropOp38
 70
     0
102
RTVSPost2010Prop39
140
1.0
102
RTVSPost2010PropOp39
 70
     0
102
RTVSPost2010Prop40
 90
        0
102
RTVSPost2010PropOp40
 70
     0
102
RTVSPost2010Prop41ColorIndex
 90
       18
102
RTVSPost2010Prop41ColorRGB
 90
        0
102
RTVSPost2010PropOp41
 70
     0
102
RTVSPost2010Prop42
 90
       50
102
RTVSPost2010PropOp42
 70
     0
102
RTVSPost2010Prop43
 90
        3
102
RTVSPost2010PropOp43
 70
     0
102
RTVSPost2010Prop44ColorIndex
 90
        5
102
RTVSPost2010Prop44ColorRGB
 90
      255
102
RTVSPost2010PropOp44
 70
     0
102
RTVSPost2010Prop45
280
     0
102
RTVSPost2010PropOp45
 70
     0
102
RTVSPost2010Prop46
 90
       50
102
RTVSPost2010PropOp46
 70
     0
102
RTVSPost2010Prop47
 90
       50
102
RTVSPost2010PropOp47
 70
     0
102
RTVSPost2010Prop48
 90
       50
102
RTVSPost2010PropOp48
 70
     0
102
RTVSPost2010Prop49
280
     0
102
RTVSPost2010PropOp49
 70
     0
102
RTVSPost2010Prop50
 90
       50
102
RTVSPost2010PropOp50
 70
     0
102
RTVSPost2010Prop51ColorIndex
 90
      256
102
RTVSPost2010Prop51ColorRGB
 90
-16777216
102
RTVSPost2010PropOp51
 70
     0
102
RTVSPost2010Prop52
140
1.0
102
RTVSPost2010PropOp52
 70
     0
102
RTVSPost2010Prop53
 90
        2
102
RTVSPost2010PropOp53
 70
     0
102
RTVSPost2010Prop54
  1
strokes_ogs.tif
102
RTVSPost2010PropOp54
 70
     0
102
RTVSPost2010Prop55
280
     0
102
RTVSPost2010PropOp55
 70
     0
102
RTVSPost2010Prop56
140
1.0
102
RTVSPost2010PropOp56
 70
     0
102
RTVSPost2010Prop57
140
1.0
102
RTVSPost2010PropOp57
 70
     0
  0
XRECORD
  5
1B7
102
{ACAD_REACTORS
330
1B6
102
}
330
1B6
100
AcDbXrecord
280
     1
102
RTVSPropertyOp0
 70
     1
102
RTVSPropertyOp1
 70
     1
102
RTVSPropertyOp2
 70
     1
102
RTVSPropertyOp3
 70
     1
102
RTVSPropertyOp4
 70
     1
102
RTVSPropertyOp5
 70
     1
102
RTVSPropertyOp6
 70
     1
102
RTVSPropertyOp7
 70
     1
102
RTVSPropertyOp8
 70
     1
102
RTVSPropertyOp9
 70
     1
102
RTVSPropertyOp10
 70
     1
102
RTVSPropertyOp11
 70
     1
102
RTVSPropertyOp12
 70
     1
102
RTVSPropertyOp13
 70
     1
102
RTVSPropertyOp14
 70
     1
102
RTVSPropertyOp15
 70
     1
102
RTVSPropertyOp16
 70
     1
102
RTVSPropertyOp17
 70
     1
102
RTVSPropertyOp18
 70
     1
102
RTVSPropertyOp19
 70
     1
102
RTVSPropertyOp20
 70
     1
102
RTVSPropertyOp21
 70
     1
102
RTVSPropertyOp22
 70
     1
102
RTVSPropertyOp23
 70
     1
102
RTVSPropertyOp24
 70
     1
102
RTVSPropertyOp25
 70
     1
102
RTVSPropertyOp26
 70
     1
102
RTVSPropertyOp27
 70
     1
102
RTVSPropertyOp28
 70
     1
102
RTVSPropertyOp29
 70
     1
102
RTVSPropertyOp30
 70
     1
102
RTVSPropertyOp31
 70
     1
102
RTVSPropertyOp32
 70
     1
102
RTVSPropertyOp33
 70
     1
102
RTVSPropertyOp34
 70
     1
102
RTVSPropertyOp35
 70
     1
102
RTVSPropertyOp36
 70
     1
102
RTVSPropertyOp37
 70
     1
102
RTVSPropertyOp38
 70
     1
102
RTVSPropertyOp39
 70
     1
102
RTVSPropertyOp40
 70
     1
102
RTVSPropertyOp41
 70
     1
102
RTVSPropertyOp42
 70
     1
102
RTVSPropertyOp43
 70
     1
102
RTVSPropertyOp44
 70
     1
102
RTVSPropertyOp45
 70
     1
102
RTVSPropertyOp46
 70
     1
102
RTVSPropertyOp47
 70
     1
102
RTVSPropertyOp48
 70
     1
102
RTVSPropertyOp49
 70
     1
102
RTVSPropertyOp50
 70
     1
102
RTVSPropertyOp51
 70
     0
102
RTVSPropertyOp52
 70
     0
102
RTVSPropertyOp53
 70
     1
102
RTVSPropertyOp54
 70
     1
102
RTVSPropertyOp55
 70
     1
102
RTVSPropertyOp56
 70
     1
102
RTVSPropertyOp57
 70
     1
102
RTVSPost2010Prop28
280
     0
102
RTVSPost2010PropOp28
 70
     1
102
RTVSPost2010Prop29
280
     1
102
RTVSPost2010PropOp29
 70
     1
102
RTVSPost2010Prop30
280
     1
102
RTVSPost2010PropOp30
 70
     1
102
RTVSPost2010Prop31
280
     0
102
RTVSPost2010PropOp31
 70
     1
102
RTVSPost2010Prop32
280
     0
102
RTVSPost2010PropOp32
 70
     1
102
RTVSPost2010Prop33
280
     0
102
RTVSPost2010PropOp33
 70
     1
102
RTVSPost2010Prop34
280
     0
102
RTVSPost2010PropOp34
 70
     1
102
RTVSPost2010Prop35
280
     0
102
RTVSPost2010PropOp35
 70
     1
102
RTVSPost2010Prop36
280
     0
102
RTVSPost2010PropOp36
 70
     1
102
RTVSPost2010Prop37
 90
       50
102
RTVSPost2010PropOp37
 70
     1
102
RTVSPost2010Prop38
140
0.0
102
RTVSPost2010PropOp38
 70
     1
102
RTVSPost2010Prop39
140
1.0
102
RTVSPost2010PropOp39
 70
     1
102
RTVSPost2010Prop40
 90
        0
102
RTVSPost2010PropOp40
 70
     1
102
RTVSPost2010Prop41ColorIndex
 90
       18
102
RTVSPost2010Prop41ColorRGB
 90
        0
102
RTVSPost2010PropOp41
 70
     1
102
RTVSPost2010Prop42
 90
       50
102
RTVSPost2010PropOp42
 70
     1
102
RTVSPost2010Prop43
 90
        3
102
RTVSPost2010PropOp43
 70
     1
102
RTVSPost2010Prop44ColorIndex
 90
        5
102
RTVSPost2010Prop44ColorRGB
 90
      255
102
RTVSPost2010PropOp44
 70
     1
102
RTVSPost2010Prop45
280
     0
102
RTVSPost2010PropOp45
 70
     1
102
RTVSPost2010Prop46
 90
       50
102
RTVSPost2010PropOp46
 70
     1
102
RTVSPost2010Prop47
 90
       50
102
RTVSPost2010PropOp47
 70
     1
102
RTVSPost2010Prop48
 90
       50
102
RTVSPost2010PropOp48
 70
     1
102
RTVSPost2010Prop49
280
     0
102
RTVSPost2010PropOp49
 70
     1
102
RTVSPost2010Prop50
 90
       50
102
RTVSPost2010PropOp50
 70
     1
102
RTVSPost2010Prop51ColorIndex
 90
      256
102
RTVSPost2010Prop51ColorRGB
 90
-16777216
102
RTVSPost2010PropOp51
 70
     0
102
RTVSPost2010Prop52
140
1.0
102
RTVSPost2010PropOp52
 70
     0
102
RTVSPost2010Prop53
 90
        2
102
RTVSPost2010PropOp53
 70
     1
102
RTVSPost2010Prop54
  1
strokes_ogs.tif
102
RTVSPost2010PropOp54
 70
     1
102
RTVSPost2010Prop55
280
     0
102
RTVSPost2010PropOp55
 70
     1
102
RTVSPost2010Prop56
140
1.0
102
RTVSPost2010PropOp56
 70
     1
102
RTVSPost2010Prop57
140
1.0
102
RTVSPost2010PropOp57
 70
     1
  0
XRECORD
  5
1BF
102
{ACAD_REACTORS
330
1BE
102
}
330
1BE
100
AcDbXrecord
280
     1
102
RTVSPropertyOp0
 70
     0
102
RTVSPropertyOp1
 70
     0
102
RTVSPropertyOp2
 70
     0
102
RTVSPropertyOp3
 70
     0
102
RTVSPropertyOp4
 70
     0
102
RTVSPropertyOp5
 70
     0
102
RTVSPropertyOp6
 70
     0
102
RTVSPropertyOp7
 70
     0
102
RTVSPropertyOp8
 70
     0
102
RTVSPropertyOp9
 70
     0
102
RTVSPropertyOp10
 70
     0
102
RTVSPropertyOp11
 70
     0
102
RTVSPropertyOp12
 70
     0
102
RTVSPropertyOp13
 70
     0
102
RTVSPropertyOp14
 70
     2
102
RTVSPropertyOp15
 70
     0
102
RTVSPropertyOp16
 70
     0
102
RTVSPropertyOp17
 70
     0
102
RTVSPropertyOp18
 70
     0
102
RTVSPropertyOp19
 70
     0
102
RTVSPropertyOp20
 70
     0
102
RTVSPropertyOp21
 70
     0
102
RTVSPropertyOp22
 70
     0
102
RTVSPropertyOp23
 70
     0
102
RTVSPropertyOp24
 70
     0
102
RTVSPropertyOp25
 70
     0
102
RTVSPropertyOp26
 70
     0
102
RTVSPropertyOp27
 70
     0
102
RTVSPropertyOp28
 70
     0
102
RTVSPropertyOp29
 70
     0
102
RTVSPropertyOp30
 70
     0
102
RTVSPropertyOp31
 70
     0
102
RTVSPropertyOp32
 70
     0
102
RTVSPropertyOp33
 70
     0
102
RTVSPropertyOp34
 70
     0
102
RTVSPropertyOp35
 70
     0
102
RTVSPropertyOp36
 70
     0
102
RTVSPropertyOp37
 70
     0
102
RTVSPropertyOp38
 70
     0
102
RTVSPropertyOp39
 70
     0
102
RTVSPropertyOp40
 70
     0
102
RTVSPropertyOp41
 70
     0
102
RTVSPropertyOp42
 70
     0
102
RTVSPropertyOp43
 70
     0
102
RTVSPropertyOp44
 70
     0
102
RTVSPropertyOp45
 70
     0
102
RTVSPropertyOp46
 70
     0
102
RTVSPropertyOp47
 70
     0
102
RTVSPropertyOp48
 70
     0
102
RTVSPropertyOp49
 70
     0
102
RTVSPropertyOp50
 70
     0
102
RTVSPropertyOp51
 70
     0
102
RTVSPropertyOp52
 70
     0
102
RTVSPropertyOp53
 70
     0
102
RTVSPropertyOp54
 70
     0
102
RTVSPropertyOp55
 70
     0
102
RTVSPropertyOp56
 70
     0
102
RTVSPropertyOp57
 70
     0
102
RTVSPost2010Prop28
280
     0
102
RTVSPost2010PropOp28
 70
     0
102
RTVSPost2010Prop29
280
     1
102
RTVSPost2010PropOp29
 70
     0
102
RTVSPost2010Prop30
280
     1
102
RTVSPost2010PropOp30
 70
     0
102
RTVSPost2010Prop31
280
     0
102
RTVSPost2010PropOp31
 70
     0
102
RTVSPost2010Prop32
280
     0
102
RTVSPost2010PropOp32
 70
     0
102
RTVSPost2010Prop33
280
     0
102
RTVSPost2010PropOp33
 70
     0
102
RTVSPost2010Prop34
280
     0
102
RTVSPost2010PropOp34
 70
     0
102
RTVSPost2010Prop35
280
     0
102
RTVSPost2010PropOp35
 70
     0
102
RTVSPost2010Prop36
280
     0
102
RTVSPost2010PropOp36
 70
     0
102
RTVSPost2010Prop37
 90
       50
102
RTVSPost2010PropOp37
 70
     0
102
RTVSPost2010Prop38
140
0.0
102
RTVSPost2010PropOp38
 70
     0
102
RTVSPost2010Prop39
140
1.0
102
RTVSPost2010PropOp39
 70
     0
102
RTVSPost2010Prop40
 90
        0
102
RTVSPost2010PropOp40
 70
     0
102
RTVSPost2010Prop41ColorIndex
 90
       18
102
RTVSPost2010Prop41ColorRGB
 90
        0
102
RTVSPost2010PropOp41
 70
     0
102
RTVSPost2010Prop42
 90
       50
102
RTVSPost2010PropOp42
 70
     0
102
RTVSPost2010Prop43
 90
        3
102
RTVSPost2010PropOp43
 70
     0
102
RTVSPost2010Prop44ColorIndex
 90
        5
102
RTVSPost2010Prop44ColorRGB
 90
      255
102
RTVSPost2010PropOp44
 70
     0
102
RTVSPost2010Prop45
280
     0
102
RTVSPost2010PropOp45
 70
     0
102
RTVSPost2010Prop46
 90
       50
102
RTVSPost2010PropOp46
 70
     0
102
RTVSPost2010Prop47
 90
       50
102
RTVSPost2010PropOp47
 70
     0
102
RTVSPost2010Prop48
 90
       50
102
RTVSPost2010PropOp48
 70
     0
102
RTVSPost2010Prop49
280
     0
102
RTVSPost2010PropOp49
 70
     0
102
RTVSPost2010Prop50
 90
       50
102
RTVSPost2010PropOp50
 70
     0
102
RTVSPost2010Prop51ColorIndex
 90
      256
102
RTVSPost2010Prop51ColorRGB
 90
-16777216
102
RTVSPost2010PropOp51
 70
     0
102
RTVSPost2010Prop52
140
1.0
102
RTVSPost2010PropOp52
 70
     0
102
RTVSPost2010Prop53
 90
        2
102
RTVSPost2010PropOp53
 70
     0
102
RTVSPost2010Prop54
  1
strokes_ogs.tif
102
RTVSPost2010PropOp54
 70
     0
102
RTVSPost2010Prop55
280
     0
102
RTVSPost2010PropOp55
 70
     0
102
RTVSPost2010Prop56
140
1.0
102
RTVSPost2010PropOp56
 70
     0
102
RTVSPost2010Prop57
140
1.0
102
RTVSPost2010PropOp57
 70
     0
  0
XRECORD
  5
1AD
102
{ACAD_REACTORS
330
1AC
102
}
330
1AC
100
AcDbXrecord
280
     1
102
RTVSPropertyOp0
 70
     1
102
RTVSPropertyOp1
 70
     1
102
RTVSPropertyOp2
 70
     1
102
RTVSPropertyOp3
 70
     1
102
RTVSPropertyOp4
 70
     1
102
RTVSPropertyOp5
 70
     1
102
RTVSPropertyOp6
 70
     1
102
RTVSPropertyOp7
 70
     1
102
RTVSPropertyOp8
 70
     1
102
RTVSPropertyOp9
 70
     1
102
RTVSPropertyOp10
 70
     1
102
RTVSPropertyOp11
 70
     1
102
RTVSPropertyOp12
 70
     1
102
RTVSPropertyOp13
 70
     1
102
RTVSPropertyOp14
 70
     1
102
RTVSPropertyOp15
 70
     1
102
RTVSPropertyOp16
 70
     1
102
RTVSPropertyOp17
 70
     1
102
RTVSPropertyOp18
 70
     1
102
RTVSPropertyOp19
 70
     1
102
RTVSPropertyOp20
 70
     1
102
RTVSPropertyOp21
 70
     1
102
RTVSPropertyOp22
 70
     1
102
RTVSPropertyOp23
 70
     1
102
RTVSPropertyOp24
 70
     1
102
RTVSPropertyOp25
 70
     1
102
RTVSPropertyOp26
 70
     1
102
RTVSPropertyOp27
 70
     1
102
RTVSPropertyOp28
 70
     1
102
RTVSPropertyOp29
 70
     1
102
RTVSPropertyOp30
 70
     1
102
RTVSPropertyOp31
 70
     1
102
RTVSPropertyOp32
 70
     1
102
RTVSPropertyOp33
 70
     1
102
RTVSPropertyOp34
 70
     1
102
RTVSPropertyOp35
 70
     1
102
RTVSPropertyOp36
 70
     1
102
RTVSPropertyOp37
 70
     1
102
RTVSPropertyOp38
 70
     1
102
RTVSPropertyOp39
 70
     1
102
RTVSPropertyOp40
 70
     1
102
RTVSPropertyOp41
 70
     1
102
RTVSPropertyOp42
 70
     1
102
RTVSPropertyOp43
 70
     1
102
RTVSPropertyOp44
 70
     1
102
RTVSPropertyOp45
 70
     1
102
RTVSPropertyOp46
 70
     1
102
RTVSPropertyOp47
 70
     1
102
RTVSPropertyOp48
 70
     1
102
RTVSPropertyOp49
 70
     1
102
RTVSPropertyOp50
 70
     1
102
RTVSPropertyOp51
 70
     0
102
RTVSPropertyOp52
 70
     0
102
RTVSPropertyOp53
 70
     1
102
RTVSPropertyOp54
 70
     1
102
RTVSPropertyOp55
 70
     1
102
RTVSPropertyOp56
 70
     1
102
RTVSPropertyOp57
 70
     1
102
RTVSPost2010Prop28
280
     0
102
RTVSPost2010PropOp28
 70
     1
102
RTVSPost2010Prop29
280
     1
102
RTVSPost2010PropOp29
 70
     1
102
RTVSPost2010Prop30
280
     1
102
RTVSPost2010PropOp30
 70
     1
102
RTVSPost2010Prop31
280
     0
102
RTVSPost2010PropOp31
 70
     1
102
RTVSPost2010Prop32
280
     0
102
RTVSPost2010PropOp32
 70
     1
102
RTVSPost2010Prop33
280
     0
102
RTVSPost2010PropOp33
 70
     1
102
RTVSPost2010Prop34
280
     0
102
RTVSPost2010PropOp34
 70
     1
102
RTVSPost2010Prop35
280
     0
102
RTVSPost2010PropOp35
 70
     1
102
RTVSPost2010Prop36
280
     0
102
RTVSPost2010PropOp36
 70
     1
102
RTVSPost2010Prop37
 90
       50
102
RTVSPost2010PropOp37
 70
     1
102
RTVSPost2010Prop38
140
0.0
102
RTVSPost2010PropOp38
 70
     1
102
RTVSPost2010Prop39
140
1.0
102
RTVSPost2010PropOp39
 70
     1
102
RTVSPost2010Prop40
 90
        0
102
RTVSPost2010PropOp40
 70
     1
102
RTVSPost2010Prop41ColorIndex
 90
       18
102
RTVSPost2010Prop41ColorRGB
 90
        0
102
RTVSPost2010PropOp41
 70
     1
102
RTVSPost2010Prop42
 90
       50
102
RTVSPost2010PropOp42
 70
     1
102
RTVSPost2010Prop43
 90
        3
102
RTVSPost2010PropOp43
 70
     1
102
RTVSPost2010Prop44ColorIndex
 90
        5
102
RTVSPost2010Prop44ColorRGB
 90
      255
102
RTVSPost2010PropOp44
 70
     1
102
RTVSPost2010Prop45
280
     0
102
RTVSPost2010PropOp45
 70
     1
102
RTVSPost2010Prop46
 90
       50
102
RTVSPost2010PropOp46
 70
     1
102
RTVSPost2010Prop47
 90
       50
102
RTVSPost2010PropOp47
 70
     1
102
RTVSPost2010Prop48
 90
       50
102
RTVSPost2010PropOp48
 70
     1
102
RTVSPost2010Prop49
280
     0
102
RTVSPost2010PropOp49
 70
     1
102
RTVSPost2010Prop50
 90
       50
102
RTVSPost2010PropOp50
 70
     1
102
RTVSPost2010Prop51ColorIndex
 90
      256
102
RTVSPost2010Prop51ColorRGB
 90
-16777216
102
RTVSPost2010PropOp51
 70
     0
102
RTVSPost2010Prop52
140
1.0
102
RTVSPost2010PropOp52
 70
     0
102
RTVSPost2010Prop53
 90
        2
102
RTVSPost2010PropOp53
 70
     1
102
RTVSPost2010Prop54
  1
strokes_ogs.tif
102
RTVSPost2010PropOp54
 70
     1
102
RTVSPost2010Prop55
280
     0
102
RTVSPost2010PropOp55
 70
     1
102
RTVSPost2010Prop56
140
1.0
102
RTVSPost2010PropOp56
 70
     1
102
RTVSPost2010Prop57
140
1.0
102
RTVSPost2010PropOp57
 70
     1
  0
XRECORD
  5
1CB
102
{ACAD_REACTORS
330
1CA
102
}
330
1CA
100
AcDbXrecord
280
     1
102
RTVSPropertyOp0
 70
     1
102
RTVSPropertyOp1
 70
     1
102
RTVSPropertyOp2
 70
     1
102
RTVSPropertyOp3
 70
     1
102
RTVSPropertyOp4
 70
     1
102
RTVSPropertyOp5
 70
     1
102
RTVSPropertyOp6
 70
     1
102
RTVSPropertyOp7
 70
     1
102
RTVSPropertyOp8
 70
     1
102
RTVSPropertyOp9
 70
     1
102
RTVSPropertyOp10
 70
     1
102
RTVSPropertyOp11
 70
     1
102
RTVSPropertyOp12
 70
     1
102
RTVSPropertyOp13
 70
     1
102
RTVSPropertyOp14
 70
     1
102
RTVSPropertyOp15
 70
     1
102
RTVSPropertyOp16
 70
     1
102
RTVSPropertyOp17
 70
     1
102
RTVSPropertyOp18
 70
     1
102
RTVSPropertyOp19
 70
     1
102
RTVSPropertyOp20
 70
     1
102
RTVSPropertyOp21
 70
     1
102
RTVSPropertyOp22
 70
     1
102
RTVSPropertyOp23
 70
     1
102
RTVSPropertyOp24
 70
     1
102
RTVSPropertyOp25
 70
     1
102
RTVSPropertyOp26
 70
     1
102
RTVSPropertyOp27
 70
     1
102
RTVSPropertyOp28
 70
     1
102
RTVSPropertyOp29
 70
     1
102
RTVSPropertyOp30
 70
     1
102
RTVSPropertyOp31
 70
     1
102
RTVSPropertyOp32
 70
     1
102
RTVSPropertyOp33
 70
     1
102
RTVSPropertyOp34
 70
     1
102
RTVSPropertyOp35
 70
     1
102
RTVSPropertyOp36
 70
     1
102
RTVSPropertyOp37
 70
     1
102
RTVSPropertyOp38
 70
     1
102
RTVSPropertyOp39
 70
     1
102
RTVSPropertyOp40
 70
     1
102
RTVSPropertyOp41
 70
     1
102
RTVSPropertyOp42
 70
     1
102
RTVSPropertyOp43
 70
     1
102
RTVSPropertyOp44
 70
     1
102
RTVSPropertyOp45
 70
     1
102
RTVSPropertyOp46
 70
     1
102
RTVSPropertyOp47
 70
     1
102
RTVSPropertyOp48
 70
     1
102
RTVSPropertyOp49
 70
     1
102
RTVSPropertyOp50
 70
     1
102
RTVSPropertyOp51
 70
     0
102
RTVSPropertyOp52
 70
     0
102
RTVSPropertyOp53
 70
     1
102
RTVSPropertyOp54
 70
     1
102
RTVSPropertyOp55
 70
     1
102
RTVSPropertyOp56
 70
     1
102
RTVSPropertyOp57
 70
     1
102
RTVSPost2010Prop28
280
     0
102
RTVSPost2010PropOp28
 70
     1
102
RTVSPost2010Prop29
280
     1
102
RTVSPost2010PropOp29
 70
     1
102
RTVSPost2010Prop30
280
     1
102
RTVSPost2010PropOp30
 70
     1
102
RTVSPost2010Prop31
280
     0
102
RTVSPost2010PropOp31
 70
     1
102
RTVSPost2010Prop32
280
     0
102
RTVSPost2010PropOp32
 70
     1
102
RTVSPost2010Prop33
280
     0
102
RTVSPost2010PropOp33
 70
     1
102
RTVSPost2010Prop34
280
     0
102
RTVSPost2010PropOp34
 70
     1
102
RTVSPost2010Prop35
280
     0
102
RTVSPost2010PropOp35
 70
     1
102
RTVSPost2010Prop36
280
     0
102
RTVSPost2010PropOp36
 70
     1
102
RTVSPost2010Prop37
 90
       50
102
RTVSPost2010PropOp37
 70
     1
102
RTVSPost2010Prop38
140
0.0
102
RTVSPost2010PropOp38
 70
     1
102
RTVSPost2010Prop39
140
1.0
102
RTVSPost2010PropOp39
 70
     1
102
RTVSPost2010Prop40
 90
        0
102
RTVSPost2010PropOp40
 70
     1
102
RTVSPost2010Prop41ColorIndex
 90
       18
102
RTVSPost2010Prop41ColorRGB
 90
        0
102
RTVSPost2010PropOp41
 70
     1
102
RTVSPost2010Prop42
 90
       50
102
RTVSPost2010PropOp42
 70
     1
102
RTVSPost2010Prop43
 90
        3
102
RTVSPost2010PropOp43
 70
     1
102
RTVSPost2010Prop44ColorIndex
 90
        5
102
RTVSPost2010Prop44ColorRGB
 90
      255
102
RTVSPost2010PropOp44
 70
     1
102
RTVSPost2010Prop45
280
     0
102
RTVSPost2010PropOp45
 70
     1
102
RTVSPost2010Prop46
 90
       50
102
RTVSPost2010PropOp46
 70
     1
102
RTVSPost2010Prop47
 90
       50
102
RTVSPost2010PropOp47
 70
     1
102
RTVSPost2010Prop48
 90
       50
102
RTVSPost2010PropOp48
 70
     1
102
RTVSPost2010Prop49
280
     0
102
RTVSPost2010PropOp49
 70
     1
102
RTVSPost2010Prop50
 90
       50
102
RTVSPost2010PropOp50
 70
     1
102
RTVSPost2010Prop51ColorIndex
 90
      256
102
RTVSPost2010Prop51ColorRGB
 90
-16777216
102
RTVSPost2010PropOp51
 70
     0
102
RTVSPost2010Prop52
140
1.0
102
RTVSPost2010PropOp52
 70
     0
102
RTVSPost2010Prop53
 90
        2
102
RTVSPost2010PropOp53
 70
     1
102
RTVSPost2010Prop54
  1
strokes_ogs.tif
102
RTVSPost2010PropOp54
 70
     1
102
RTVSPost2010Prop55
280
     0
102
RTVSPost2010PropOp55
 70
     1
102
RTVSPost2010Prop56
140
1.0
102
RTVSPost2010PropOp56
 70
     1
102
RTVSPost2010Prop57
140
1.0
102
RTVSPost2010PropOp57
 70
     1
  0
XRECORD
  5
1C9
102
{ACAD_REACTORS
330
1C8
102
}
330
1C8
100
AcDbXrecord
280
     1
102
RTVSPropertyOp0
 70
     1
102
RTVSPropertyOp1
 70
     1
102
RTVSPropertyOp2
 70
     1
102
RTVSPropertyOp3
 70
     1
102
RTVSPropertyOp4
 70
     1
102
RTVSPropertyOp5
 70
     1
102
RTVSPropertyOp6
 70
     1
102
RTVSPropertyOp7
 70
     1
102
RTVSPropertyOp8
 70
     1
102
RTVSPropertyOp9
 70
     1
102
RTVSPropertyOp10
 70
     1
102
RTVSPropertyOp11
 70
     1
102
RTVSPropertyOp12
 70
     1
102
RTVSPropertyOp13
 70
     1
102
RTVSPropertyOp14
 70
     1
102
RTVSPropertyOp15
 70
     1
102
RTVSPropertyOp16
 70
     1
102
RTVSPropertyOp17
 70
     1
102
RTVSPropertyOp18
 70
     1
102
RTVSPropertyOp19
 70
     1
102
RTVSPropertyOp20
 70
     1
102
RTVSPropertyOp21
 70
     1
102
RTVSPropertyOp22
 70
     1
102
RTVSPropertyOp23
 70
     1
102
RTVSPropertyOp24
 70
     1
102
RTVSPropertyOp25
 70
     1
102
RTVSPropertyOp26
 70
     1
102
RTVSPropertyOp27
 70
     1
102
RTVSPropertyOp28
 70
     1
102
RTVSPropertyOp29
 70
     1
102
RTVSPropertyOp30
 70
     1
102
RTVSPropertyOp31
 70
     1
102
RTVSPropertyOp32
 70
     1
102
RTVSPropertyOp33
 70
     1
102
RTVSPropertyOp34
 70
     1
102
RTVSPropertyOp35
 70
     1
102
RTVSPropertyOp36
 70
     1
102
RTVSPropertyOp37
 70
     1
102
RTVSPropertyOp38
 70
     1
102
RTVSPropertyOp39
 70
     1
102
RTVSPropertyOp40
 70
     1
102
RTVSPropertyOp41
 70
     1
102
RTVSPropertyOp42
 70
     1
102
RTVSPropertyOp43
 70
     1
102
RTVSPropertyOp44
 70
     1
102
RTVSPropertyOp45
 70
     1
102
RTVSPropertyOp46
 70
     1
102
RTVSPropertyOp47
 70
     1
102
RTVSPropertyOp48
 70
     1
102
RTVSPropertyOp49
 70
     1
102
RTVSPropertyOp50
 70
     1
102
RTVSPropertyOp51
 70
     0
102
RTVSPropertyOp52
 70
     0
102
RTVSPropertyOp53
 70
     1
102
RTVSPropertyOp54
 70
     1
102
RTVSPropertyOp55
 70
     1
102
RTVSPropertyOp56
 70
     1
102
RTVSPropertyOp57
 70
     1
102
RTVSPost2010Prop28
280
     0
102
RTVSPost2010PropOp28
 70
     1
102
RTVSPost2010Prop29
280
     1
102
RTVSPost2010PropOp29
 70
     1
102
RTVSPost2010Prop30
280
     1
102
RTVSPost2010PropOp30
 70
     1
102
RTVSPost2010Prop31
280
     0
102
RTVSPost2010PropOp31
 70
     1
102
RTVSPost2010Prop32
280
     0
102
RTVSPost2010PropOp32
 70
     1
102
RTVSPost2010Prop33
280
     0
102
RTVSPost2010PropOp33
 70
     1
102
RTVSPost2010Prop34
280
     0
102
RTVSPost2010PropOp34
 70
     1
102
RTVSPost2010Prop35
280
     0
102
RTVSPost2010PropOp35
 70
     1
102
RTVSPost2010Prop36
280
     0
102
RTVSPost2010PropOp36
 70
     1
102
RTVSPost2010Prop37
 90
       50
102
RTVSPost2010PropOp37
 70
     1
102
RTVSPost2010Prop38
140
0.0
102
RTVSPost2010PropOp38
 70
     1
102
RTVSPost2010Prop39
140
1.0
102
RTVSPost2010PropOp39
 70
     1
102
RTVSPost2010Prop40
 90
        0
102
RTVSPost2010PropOp40
 70
     1
102
RTVSPost2010Prop41ColorIndex
 90
       18
102
RTVSPost2010Prop41ColorRGB
 90
        0
102
RTVSPost2010PropOp41
 70
     1
102
RTVSPost2010Prop42
 90
       50
102
RTVSPost2010PropOp42
 70
     1
102
RTVSPost2010Prop43
 90
        3
102
RTVSPost2010PropOp43
 70
     1
102
RTVSPost2010Prop44ColorIndex
 90
        5
102
RTVSPost2010Prop44ColorRGB
 90
      255
102
RTVSPost2010PropOp44
 70
     1
102
RTVSPost2010Prop45
280
     0
102
RTVSPost2010PropOp45
 70
     1
102
RTVSPost2010Prop46
 90
       50
102
RTVSPost2010PropOp46
 70
     1
102
RTVSPost2010Prop47
 90
       50
102
RTVSPost2010PropOp47
 70
     1
102
RTVSPost2010Prop48
 90
       50
102
RTVSPost2010PropOp48
 70
     1
102
RTVSPost2010Prop49
280
     0
102
RTVSPost2010PropOp49
 70
     1
102
RTVSPost2010Prop50
 90
       50
102
RTVSPost2010PropOp50
 70
     1
102
RTVSPost2010Prop51ColorIndex
 90
      256
102
RTVSPost2010Prop51ColorRGB
 90
-16777216
102
RTVSPost2010PropOp51
 70
     0
102
RTVSPost2010Prop52
140
1.0
102
RTVSPost2010PropOp52
 70
     0
102
RTVSPost2010Prop53
 90
        2
102
RTVSPost2010PropOp53
 70
     1
102
RTVSPost2010Prop54
  1
strokes_ogs.tif
102
RTVSPost2010PropOp54
 70
     1
102
RTVSPost2010Prop55
280
     0
102
RTVSPost2010PropOp55
 70
     1
102
RTVSPost2010Prop56
140
1.0
102
RTVSPost2010PropOp56
 70
     1
102
RTVSPost2010Prop57
140
1.0
102
RTVSPost2010PropOp57
 70
     1
  0
XRECORD
  5
1C3
102
{ACAD_REACTORS
330
1C2
102
}
330
1C2
100
AcDbXrecord
280
     1
102
RTVSPropertyOp0
 70
     1
102
RTVSPropertyOp1
 70
     1
102
RTVSPropertyOp2
 70
     1
102
RTVSPropertyOp3
 70
     1
102
RTVSPropertyOp4
 70
     1
102
RTVSPropertyOp5
 70
     1
102
RTVSPropertyOp6
 70
     1
102
RTVSPropertyOp7
 70
     1
102
RTVSPropertyOp8
 70
     1
102
RTVSPropertyOp9
 70
     1
102
RTVSPropertyOp10
 70
     1
102
RTVSPropertyOp11
 70
     1
102
RTVSPropertyOp12
 70
     1
102
RTVSPropertyOp13
 70
     1
102
RTVSPropertyOp14
 70
     1
102
RTVSPropertyOp15
 70
     1
102
RTVSPropertyOp16
 70
     1
102
RTVSPropertyOp17
 70
     1
102
RTVSPropertyOp18
 70
     1
102
RTVSPropertyOp19
 70
     1
102
RTVSPropertyOp20
 70
     1
102
RTVSPropertyOp21
 70
     1
102
RTVSPropertyOp22
 70
     1
102
RTVSPropertyOp23
 70
     1
102
RTVSPropertyOp24
 70
     1
102
RTVSPropertyOp25
 70
     1
102
RTVSPropertyOp26
 70
     1
102
RTVSPropertyOp27
 70
     1
102
RTVSPropertyOp28
 70
     1
102
RTVSPropertyOp29
 70
     1
102
RTVSPropertyOp30
 70
     1
102
RTVSPropertyOp31
 70
     1
102
RTVSPropertyOp32
 70
     1
102
RTVSPropertyOp33
 70
     1
102
RTVSPropertyOp34
 70
     1
102
RTVSPropertyOp35
 70
     1
102
RTVSPropertyOp36
 70
     1
102
RTVSPropertyOp37
 70
     1
102
RTVSPropertyOp38
 70
     1
102
RTVSPropertyOp39
 70
     1
102
RTVSPropertyOp40
 70
     1
102
RTVSPropertyOp41
 70
     1
102
RTVSPropertyOp42
 70
     1
102
RTVSPropertyOp43
 70
     1
102
RTVSPropertyOp44
 70
     1
102
RTVSPropertyOp45
 70
     1
102
RTVSPropertyOp46
 70
     1
102
RTVSPropertyOp47
 70
     1
102
RTVSPropertyOp48
 70
     1
102
RTVSPropertyOp49
 70
     1
102
RTVSPropertyOp50
 70
     1
102
RTVSPropertyOp51
 70
     0
102
RTVSPropertyOp52
 70
     0
102
RTVSPropertyOp53
 70
     1
102
RTVSPropertyOp54
 70
     1
102
RTVSPropertyOp55
 70
     1
102
RTVSPropertyOp56
 70
     1
102
RTVSPropertyOp57
 70
     1
102
RTVSPost2010Prop28
280
     0
102
RTVSPost2010PropOp28
 70
     1
102
RTVSPost2010Prop29
280
     1
102
RTVSPost2010PropOp29
 70
     1
102
RTVSPost2010Prop30
280
     1
102
RTVSPost2010PropOp30
 70
     1
102
RTVSPost2010Prop31
280
     0
102
RTVSPost2010PropOp31
 70
     1
102
RTVSPost2010Prop32
280
     0
102
RTVSPost2010PropOp32
 70
     1
102
RTVSPost2010Prop33
280
     0
102
RTVSPost2010PropOp33
 70
     1
102
RTVSPost2010Prop34
280
     0
102
RTVSPost2010PropOp34
 70
     1
102
RTVSPost2010Prop35
280
     0
102
RTVSPost2010PropOp35
 70
     1
102
RTVSPost2010Prop36
280
     0
102
RTVSPost2010PropOp36
 70
     1
102
RTVSPost2010Prop37
 90
       50
102
RTVSPost2010PropOp37
 70
     1
102
RTVSPost2010Prop38
140
0.0
102
RTVSPost2010PropOp38
 70
     1
102
RTVSPost2010Prop39
140
1.0
102
RTVSPost2010PropOp39
 70
     1
102
RTVSPost2010Prop40
 90
        0
102
RTVSPost2010PropOp40
 70
     1
102
RTVSPost2010Prop41ColorIndex
 90
       18
102
RTVSPost2010Prop41ColorRGB
 90
        0
102
RTVSPost2010PropOp41
 70
     1
102
RTVSPost2010Prop42
 90
       50
102
RTVSPost2010PropOp42
 70
     1
102
RTVSPost2010Prop43
 90
        3
102
RTVSPost2010PropOp43
 70
     1
102
RTVSPost2010Prop44ColorIndex
 90
        5
102
RTVSPost2010Prop44ColorRGB
 90
      255
102
RTVSPost2010PropOp44
 70
     1
102
RTVSPost2010Prop45
280
     0
102
RTVSPost2010PropOp45
 70
     1
102
RTVSPost2010Prop46
 90
       50
102
RTVSPost2010PropOp46
 70
     1
102
RTVSPost2010Prop47
 90
       50
102
RTVSPost2010PropOp47
 70
     1
102
RTVSPost2010Prop48
 90
       50
102
RTVSPost2010PropOp48
 70
     1
102
RTVSPost2010Prop49
280
     0
102
RTVSPost2010PropOp49
 70
     1
102
RTVSPost2010Prop50
 90
       50
102
RTVSPost2010PropOp50
 70
     1
102
RTVSPost2010Prop51ColorIndex
 90
      256
102
RTVSPost2010Prop51ColorRGB
 90
-16777216
102
RTVSPost2010PropOp51
 70
     0
102
RTVSPost2010Prop52
140
1.0
102
RTVSPost2010PropOp52
 70
     0
102
RTVSPost2010Prop53
 90
        2
102
RTVSPost2010PropOp53
 70
     1
102
RTVSPost2010Prop54
  1
strokes_ogs.tif
102
RTVSPost2010PropOp54
 70
     1
102
RTVSPost2010Prop55
280
     0
102
RTVSPost2010PropOp55
 70
     1
102
RTVSPost2010Prop56
140
1.0
102
RTVSPost2010PropOp56
 70
     1
102
RTVSPost2010Prop57
140
1.0
102
RTVSPost2010PropOp57
 70
     1
  0
XRECORD
  5
1C5
102
{ACAD_REACTORS
330
1C4
102
}
330
1C4
100
AcDbXrecord
280
     1
102
RTVSPropertyOp0
 70
     1
102
RTVSPropertyOp1
 70
     1
102
RTVSPropertyOp2
 70
     1
102
RTVSPropertyOp3
 70
     1
102
RTVSPropertyOp4
 70
     1
102
RTVSPropertyOp5
 70
     1
102
RTVSPropertyOp6
 70
     1
102
RTVSPropertyOp7
 70
     1
102
RTVSPropertyOp8
 70
     1
102
RTVSPropertyOp9
 70
     1
102
RTVSPropertyOp10
 70
     1
102
RTVSPropertyOp11
 70
     1
102
RTVSPropertyOp12
 70
     1
102
RTVSPropertyOp13
 70
     1
102
RTVSPropertyOp14
 70
     1
102
RTVSPropertyOp15
 70
     1
102
RTVSPropertyOp16
 70
     1
102
RTVSPropertyOp17
 70
     1
102
RTVSPropertyOp18
 70
     1
102
RTVSPropertyOp19
 70
     1
102
RTVSPropertyOp20
 70
     1
102
RTVSPropertyOp21
 70
     1
102
RTVSPropertyOp22
 70
     1
102
RTVSPropertyOp23
 70
     1
102
RTVSPropertyOp24
 70
     1
102
RTVSPropertyOp25
 70
     1
102
RTVSPropertyOp26
 70
     1
102
RTVSPropertyOp27
 70
     1
102
RTVSPropertyOp28
 70
     1
102
RTVSPropertyOp29
 70
     1
102
RTVSPropertyOp30
 70
     1
102
RTVSPropertyOp31
 70
     1
102
RTVSPropertyOp32
 70
     1
102
RTVSPropertyOp33
 70
     1
102
RTVSPropertyOp34
 70
     1
102
RTVSPropertyOp35
 70
     1
102
RTVSPropertyOp36
 70
     1
102
RTVSPropertyOp37
 70
     1
102
RTVSPropertyOp38
 70
     1
102
RTVSPropertyOp39
 70
     1
102
RTVSPropertyOp40
 70
     1
102
RTVSPropertyOp41
 70
     1
102
RTVSPropertyOp42
 70
     1
102
RTVSPropertyOp43
 70
     1
102
RTVSPropertyOp44
 70
     1
102
RTVSPropertyOp45
 70
     1
102
RTVSPropertyOp46
 70
     1
102
RTVSPropertyOp47
 70
     1
102
RTVSPropertyOp48
 70
     1
102
RTVSPropertyOp49
 70
     1
102
RTVSPropertyOp50
 70
     1
102
RTVSPropertyOp51
 70
     0
102
RTVSPropertyOp52
 70
     0
102
RTVSPropertyOp53
 70
     1
102
RTVSPropertyOp54
 70
     1
102
RTVSPropertyOp55
 70
     1
102
RTVSPropertyOp56
 70
     1
102
RTVSPropertyOp57
 70
     1
102
RTVSPost2010Prop28
280
     0
102
RTVSPost2010PropOp28
 70
     1
102
RTVSPost2010Prop29
280
     1
102
RTVSPost2010PropOp29
 70
     1
102
RTVSPost2010Prop30
280
     1
102
RTVSPost2010PropOp30
 70
     1
102
RTVSPost2010Prop31
280
     0
102
RTVSPost2010PropOp31
 70
     1
102
RTVSPost2010Prop32
280
     0
102
RTVSPost2010PropOp32
 70
     1
102
RTVSPost2010Prop33
280
     0
102
RTVSPost2010PropOp33
 70
     1
102
RTVSPost2010Prop34
280
     0
102
RTVSPost2010PropOp34
 70
     1
102
RTVSPost2010Prop35
280
     0
102
RTVSPost2010PropOp35
 70
     1
102
RTVSPost2010Prop36
280
     0
102
RTVSPost2010PropOp36
 70
     1
102
RTVSPost2010Prop37
 90
       50
102
RTVSPost2010PropOp37
 70
     1
102
RTVSPost2010Prop38
140
0.0
102
RTVSPost2010PropOp38
 70
     1
102
RTVSPost2010Prop39
140
1.0
102
RTVSPost2010PropOp39
 70
     1
102
RTVSPost2010Prop40
 90
        0
102
RTVSPost2010PropOp40
 70
     1
102
RTVSPost2010Prop41ColorIndex
 90
       18
102
RTVSPost2010Prop41ColorRGB
 90
        0
102
RTVSPost2010PropOp41
 70
     1
102
RTVSPost2010Prop42
 90
       50
102
RTVSPost2010PropOp42
 70
     1
102
RTVSPost2010Prop43
 90
        3
102
RTVSPost2010PropOp43
 70
     1
102
RTVSPost2010Prop44ColorIndex
 90
        5
102
RTVSPost2010Prop44ColorRGB
 90
      255
102
RTVSPost2010PropOp44
 70
     1
102
RTVSPost2010Prop45
280
     0
102
RTVSPost2010PropOp45
 70
     1
102
RTVSPost2010Prop46
 90
       50
102
RTVSPost2010PropOp46
 70
     1
102
RTVSPost2010Prop47
 90
       50
102
RTVSPost2010PropOp47
 70
     1
102
RTVSPost2010Prop48
 90
       50
102
RTVSPost2010PropOp48
 70
     1
102
RTVSPost2010Prop49
280
     0
102
RTVSPost2010PropOp49
 70
     1
102
RTVSPost2010Prop50
 90
       50
102
RTVSPost2010PropOp50
 70
     1
102
RTVSPost2010Prop51ColorIndex
 90
      256
102
RTVSPost2010Prop51ColorRGB
 90
-16777216
102
RTVSPost2010PropOp51
 70
     0
102
RTVSPost2010Prop52
140
1.0
102
RTVSPost2010PropOp52
 70
     0
102
RTVSPost2010Prop53
 90
        2
102
RTVSPost2010PropOp53
 70
     1
102
RTVSPost2010Prop54
  1
strokes_ogs.tif
102
RTVSPost2010PropOp54
 70
     1
102
RTVSPost2010Prop55
280
     0
102
RTVSPost2010PropOp55
 70
     1
102
RTVSPost2010Prop56
140
1.0
102
RTVSPost2010PropOp56
 70
     1
102
RTVSPost2010Prop57
140
1.0
102
RTVSPost2010PropOp57
 70
     1
  0
XRECORD
  5
1B5
102
{ACAD_REACTORS
330
1B4
102
}
330
1B4
100
AcDbXrecord
280
     1
102
RTVSPropertyOp0
 70
     1
102
RTVSPropertyOp1
 70
     1
102
RTVSPropertyOp2
 70
     1
102
RTVSPropertyOp3
 70
     1
102
RTVSPropertyOp4
 70
     1
102
RTVSPropertyOp5
 70
     1
102
RTVSPropertyOp6
 70
     1
102
RTVSPropertyOp7
 70
     1
102
RTVSPropertyOp8
 70
     1
102
RTVSPropertyOp9
 70
     1
102
RTVSPropertyOp10
 70
     1
102
RTVSPropertyOp11
 70
     1
102
RTVSPropertyOp12
 70
     1
102
RTVSPropertyOp13
 70
     1
102
RTVSPropertyOp14
 70
     1
102
RTVSPropertyOp15
 70
     1
102
RTVSPropertyOp16
 70
     1
102
RTVSPropertyOp17
 70
     1
102
RTVSPropertyOp18
 70
     1
102
RTVSPropertyOp19
 70
     1
102
RTVSPropertyOp20
 70
     1
102
RTVSPropertyOp21
 70
     1
102
RTVSPropertyOp22
 70
     1
102
RTVSPropertyOp23
 70
     1
102
RTVSPropertyOp24
 70
     1
102
RTVSPropertyOp25
 70
     1
102
RTVSPropertyOp26
 70
     1
102
RTVSPropertyOp27
 70
     1
102
RTVSPropertyOp28
 70
     1
102
RTVSPropertyOp29
 70
     1
102
RTVSPropertyOp30
 70
     1
102
RTVSPropertyOp31
 70
     1
102
RTVSPropertyOp32
 70
     1
102
RTVSPropertyOp33
 70
     1
102
RTVSPropertyOp34
 70
     1
102
RTVSPropertyOp35
 70
     1
102
RTVSPropertyOp36
 70
     1
102
RTVSPropertyOp37
 70
     1
102
RTVSPropertyOp38
 70
     1
102
RTVSPropertyOp39
 70
     1
102
RTVSPropertyOp40
 70
     1
102
RTVSPropertyOp41
 70
     1
102
RTVSPropertyOp42
 70
     1
102
RTVSPropertyOp43
 70
     1
102
RTVSPropertyOp44
 70
     1
102
RTVSPropertyOp45
 70
     1
102
RTVSPropertyOp46
 70
     1
102
RTVSPropertyOp47
 70
     1
102
RTVSPropertyOp48
 70
     1
102
RTVSPropertyOp49
 70
     1
102
RTVSPropertyOp50
 70
     1
102
RTVSPropertyOp51
 70
     0
102
RTVSPropertyOp52
 70
     0
102
RTVSPropertyOp53
 70
     1
102
RTVSPropertyOp54
 70
     1
102
RTVSPropertyOp55
 70
     1
102
RTVSPropertyOp56
 70
     1
102
RTVSPropertyOp57
 70
     1
102
RTVSPost2010Prop28
280
     0
102
RTVSPost2010PropOp28
 70
     1
102
RTVSPost2010Prop29
280
     1
102
RTVSPost2010PropOp29
 70
     1
102
RTVSPost2010Prop30
280
     1
102
RTVSPost2010PropOp30
 70
     1
102
RTVSPost2010Prop31
280
     0
102
RTVSPost2010PropOp31
 70
     1
102
RTVSPost2010Prop32
280
     0
102
RTVSPost2010PropOp32
 70
     1
102
RTVSPost2010Prop33
280
     0
102
RTVSPost2010PropOp33
 70
     1
102
RTVSPost2010Prop34
280
     0
102
RTVSPost2010PropOp34
 70
     1
102
RTVSPost2010Prop35
280
     0
102
RTVSPost2010PropOp35
 70
     1
102
RTVSPost2010Prop36
280
     0
102
RTVSPost2010PropOp36
 70
     1
102
RTVSPost2010Prop37
 90
       50
102
RTVSPost2010PropOp37
 70
     1
102
RTVSPost2010Prop38
140
0.0
102
RTVSPost2010PropOp38
 70
     1
102
RTVSPost2010Prop39
140
1.0
102
RTVSPost2010PropOp39
 70
     1
102
RTVSPost2010Prop40
 90
        0
102
RTVSPost2010PropOp40
 70
     1
102
RTVSPost2010Prop41ColorIndex
 90
       18
102
RTVSPost2010Prop41ColorRGB
 90
        0
102
RTVSPost2010PropOp41
 70
     1
102
RTVSPost2010Prop42
 90
       50
102
RTVSPost2010PropOp42
 70
     1
102
RTVSPost2010Prop43
 90
        3
102
RTVSPost2010PropOp43
 70
     1
102
RTVSPost2010Prop44ColorIndex
 90
        5
102
RTVSPost2010Prop44ColorRGB
 90
      255
102
RTVSPost2010PropOp44
 70
     1
102
RTVSPost2010Prop45
280
     0
102
RTVSPost2010PropOp45
 70
     1
102
RTVSPost2010Prop46
 90
       50
102
RTVSPost2010PropOp46
 70
     1
102
RTVSPost2010Prop47
 90
       50
102
RTVSPost2010PropOp47
 70
     1
102
RTVSPost2010Prop48
 90
       50
102
RTVSPost2010PropOp48
 70
     1
102
RTVSPost2010Prop49
280
     0
102
RTVSPost2010PropOp49
 70
     1
102
RTVSPost2010Prop50
 90
       50
102
RTVSPost2010PropOp50
 70
     1
102
RTVSPost2010Prop51ColorIndex
 90
      256
102
RTVSPost2010Prop51ColorRGB
 90
-16777216
102
RTVSPost2010PropOp51
 70
     0
102
RTVSPost2010Prop52
140
1.0
102
RTVSPost2010PropOp52
 70
     0
102
RTVSPost2010Prop53
 90
        2
102
RTVSPost2010PropOp53
 70
     1
102
RTVSPost2010Prop54
  1
strokes_ogs.tif
102
RTVSPost2010PropOp54
 70
     1
102
RTVSPost2010Prop55
280
     0
102
RTVSPost2010PropOp55
 70
     1
102
RTVSPost2010Prop56
140
1.0
102
RTVSPost2010PropOp56
 70
     1
102
RTVSPost2010Prop57
140
1.0
102
RTVSPost2010PropOp57
 70
     1
  0
XRECORD
  5
1A7
102
{ACAD_REACTORS
330
1A6
102
}
330
1A6
100
AcDbXrecord
280
     1
102
RTVSPropertyOp0
 70
     1
102
RTVSPropertyOp1
 70
     1
102
RTVSPropertyOp2
 70
     1
102
RTVSPropertyOp3
 70
     1
102
RTVSPropertyOp4
 70
     1
102
RTVSPropertyOp5
 70
     1
102
RTVSPropertyOp6
 70
     1
102
RTVSPropertyOp7
 70
     1
102
RTVSPropertyOp8
 70
     1
102
RTVSPropertyOp9
 70
     1
102
RTVSPropertyOp10
 70
     1
102
RTVSPropertyOp11
 70
     1
102
RTVSPropertyOp12
 70
     1
102
RTVSPropertyOp13
 70
     1
102
RTVSPropertyOp14
 70
     1
102
RTVSPropertyOp15
 70
     1
102
RTVSPropertyOp16
 70
     1
102
RTVSPropertyOp17
 70
     1
102
RTVSPropertyOp18
 70
     1
102
RTVSPropertyOp19
 70
     1
102
RTVSPropertyOp20
 70
     1
102
RTVSPropertyOp21
 70
     1
102
RTVSPropertyOp22
 70
     1
102
RTVSPropertyOp23
 70
     1
102
RTVSPropertyOp24
 70
     1
102
RTVSPropertyOp25
 70
     1
102
RTVSPropertyOp26
 70
     1
102
RTVSPropertyOp27
 70
     1
102
RTVSPropertyOp28
 70
     1
102
RTVSPropertyOp29
 70
     1
102
RTVSPropertyOp30
 70
     1
102
RTVSPropertyOp31
 70
     1
102
RTVSPropertyOp32
 70
     1
102
RTVSPropertyOp33
 70
     1
102
RTVSPropertyOp34
 70
     1
102
RTVSPropertyOp35
 70
     1
102
RTVSPropertyOp36
 70
     1
102
RTVSPropertyOp37
 70
     1
102
RTVSPropertyOp38
 70
     1
102
RTVSPropertyOp39
 70
     1
102
RTVSPropertyOp40
 70
     1
102
RTVSPropertyOp41
 70
     1
102
RTVSPropertyOp42
 70
     1
102
RTVSPropertyOp43
 70
     1
102
RTVSPropertyOp44
 70
     1
102
RTVSPropertyOp45
 70
     1
102
RTVSPropertyOp46
 70
     1
102
RTVSPropertyOp47
 70
     1
102
RTVSPropertyOp48
 70
     1
102
RTVSPropertyOp49
 70
     1
102
RTVSPropertyOp50
 70
     1
102
RTVSPropertyOp51
 70
     0
102
RTVSPropertyOp52
 70
     0
102
RTVSPropertyOp53
 70
     1
102
RTVSPropertyOp54
 70
     1
102
RTVSPropertyOp55
 70
     1
102
RTVSPropertyOp56
 70
     1
102
RTVSPropertyOp57
 70
     1
102
RTVSPost2010Prop28
280
     0
102
RTVSPost2010PropOp28
 70
     1
102
RTVSPost2010Prop29
280
     1
102
RTVSPost2010PropOp29
 70
     1
102
RTVSPost2010Prop30
280
     1
102
RTVSPost2010PropOp30
 70
     1
102
RTVSPost2010Prop31
280
     0
102
RTVSPost2010PropOp31
 70
     1
102
RTVSPost2010Prop32
280
     0
102
RTVSPost2010PropOp32
 70
     1
102
RTVSPost2010Prop33
280
     0
102
RTVSPost2010PropOp33
 70
     1
102
RTVSPost2010Prop34
280
     0
102
RTVSPost2010PropOp34
 70
     1
102
RTVSPost2010Prop35
280
     0
102
RTVSPost2010PropOp35
 70
     1
102
RTVSPost2010Prop36
280
     0
102
RTVSPost2010PropOp36
 70
     1
102
RTVSPost2010Prop37
 90
       50
102
RTVSPost2010PropOp37
 70
     1
102
RTVSPost2010Prop38
140
0.0
102
RTVSPost2010PropOp38
 70
     1
102
RTVSPost2010Prop39
140
1.0
102
RTVSPost2010PropOp39
 70
     1
102
RTVSPost2010Prop40
 90
        0
102
RTVSPost2010PropOp40
 70
     1
102
RTVSPost2010Prop41ColorIndex
 90
       18
102
RTVSPost2010Prop41ColorRGB
 90
        0
102
RTVSPost2010PropOp41
 70
     1
102
RTVSPost2010Prop42
 90
       50
102
RTVSPost2010PropOp42
 70
     1
102
RTVSPost2010Prop43
 90
        3
102
RTVSPost2010PropOp43
 70
     1
102
RTVSPost2010Prop44ColorIndex
 90
        5
102
RTVSPost2010Prop44ColorRGB
 90
      255
102
RTVSPost2010PropOp44
 70
     1
102
RTVSPost2010Prop45
280
     0
102
RTVSPost2010PropOp45
 70
     1
102
RTVSPost2010Prop46
 90
       50
102
RTVSPost2010PropOp46
 70
     1
102
RTVSPost2010Prop47
 90
       50
102
RTVSPost2010PropOp47
 70
     1
102
RTVSPost2010Prop48
 90
       50
102
RTVSPost2010PropOp48
 70
     1
102
RTVSPost2010Prop49
280
     0
102
RTVSPost2010PropOp49
 70
     1
102
RTVSPost2010Prop50
 90
       50
102
RTVSPost2010PropOp50
 70
     1
102
RTVSPost2010Prop51ColorIndex
 90
      256
102
RTVSPost2010Prop51ColorRGB
 90
-16777216
102
RTVSPost2010PropOp51
 70
     0
102
RTVSPost2010Prop52
140
1.0
102
RTVSPost2010PropOp52
 70
     0
102
RTVSPost2010Prop53
 90
        2
102
RTVSPost2010PropOp53
 70
     1
102
RTVSPost2010Prop54
  1
strokes_ogs.tif
102
RTVSPost2010PropOp54
 70
     1
102
RTVSPost2010Prop55
280
     0
102
RTVSPost2010PropOp55
 70
     1
102
RTVSPost2010Prop56
140
1.0
102
RTVSPost2010PropOp56
 70
     1
102
RTVSPost2010Prop57
140
1.0
102
RTVSPost2010PropOp57
 70
     1
  0
XRECORD
  5
1C7
102
{ACAD_REACTORS
330
1C6
102
}
330
1C6
100
AcDbXrecord
280
     1
102
RTVSPropertyOp0
 70
     1
102
RTVSPropertyOp1
 70
     1
102
RTVSPropertyOp2
 70
     1
102
RTVSPropertyOp3
 70
     1
102
RTVSPropertyOp4
 70
     1
102
RTVSPropertyOp5
 70
     1
102
RTVSPropertyOp6
 70
     1
102
RTVSPropertyOp7
 70
     1
102
RTVSPropertyOp8
 70
     1
102
RTVSPropertyOp9
 70
     1
102
RTVSPropertyOp10
 70
     1
102
RTVSPropertyOp11
 70
     1
102
RTVSPropertyOp12
 70
     1
102
RTVSPropertyOp13
 70
     1
102
RTVSPropertyOp14
 70
     1
102
RTVSPropertyOp15
 70
     1
102
RTVSPropertyOp16
 70
     1
102
RTVSPropertyOp17
 70
     1
102
RTVSPropertyOp18
 70
     1
102
RTVSPropertyOp19
 70
     1
102
RTVSPropertyOp20
 70
     1
102
RTVSPropertyOp21
 70
     1
102
RTVSPropertyOp22
 70
     1
102
RTVSPropertyOp23
 70
     1
102
RTVSPropertyOp24
 70
     1
102
RTVSPropertyOp25
 70
     1
102
RTVSPropertyOp26
 70
     1
102
RTVSPropertyOp27
 70
     1
102
RTVSPropertyOp28
 70
     1
102
RTVSPropertyOp29
 70
     1
102
RTVSPropertyOp30
 70
     1
102
RTVSPropertyOp31
 70
     1
102
RTVSPropertyOp32
 70
     1
102
RTVSPropertyOp33
 70
     1
102
RTVSPropertyOp34
 70
     1
102
RTVSPropertyOp35
 70
     1
102
RTVSPropertyOp36
 70
     1
102
RTVSPropertyOp37
 70
     1
102
RTVSPropertyOp38
 70
     1
102
RTVSPropertyOp39
 70
     1
102
RTVSPropertyOp40
 70
     1
102
RTVSPropertyOp41
 70
     1
102
RTVSPropertyOp42
 70
     1
102
RTVSPropertyOp43
 70
     1
102
RTVSPropertyOp44
 70
     1
102
RTVSPropertyOp45
 70
     1
102
RTVSPropertyOp46
 70
     1
102
RTVSPropertyOp47
 70
     1
102
RTVSPropertyOp48
 70
     1
102
RTVSPropertyOp49
 70
     1
102
RTVSPropertyOp50
 70
     1
102
RTVSPropertyOp51
 70
     0
102
RTVSPropertyOp52
 70
     0
102
RTVSPropertyOp53
 70
     1
102
RTVSPropertyOp54
 70
     1
102
RTVSPropertyOp55
 70
     1
102
RTVSPropertyOp56
 70
     1
102
RTVSPropertyOp57
 70
     1
102
RTVSPost2010Prop28
280
     0
102
RTVSPost2010PropOp28
 70
     1
102
RTVSPost2010Prop29
280
     1
102
RTVSPost2010PropOp29
 70
     1
102
RTVSPost2010Prop30
280
     1
102
RTVSPost2010PropOp30
 70
     1
102
RTVSPost2010Prop31
280
     0
102
RTVSPost2010PropOp31
 70
     1
102
RTVSPost2010Prop32
280
     0
102
RTVSPost2010PropOp32
 70
     1
102
RTVSPost2010Prop33
280
     0
102
RTVSPost2010PropOp33
 70
     1
102
RTVSPost2010Prop34
280
     0
102
RTVSPost2010PropOp34
 70
     1
102
RTVSPost2010Prop35
280
     0
102
RTVSPost2010PropOp35
 70
     1
102
RTVSPost2010Prop36
280
     0
102
RTVSPost2010PropOp36
 70
     1
102
RTVSPost2010Prop37
 90
       50
102
RTVSPost2010PropOp37
 70
     1
102
RTVSPost2010Prop38
140
0.0
102
RTVSPost2010PropOp38
 70
     1
102
RTVSPost2010Prop39
140
1.0
102
RTVSPost2010PropOp39
 70
     1
102
RTVSPost2010Prop40
 90
        0
102
RTVSPost2010PropOp40
 70
     1
102
RTVSPost2010Prop41ColorIndex
 90
       18
102
RTVSPost2010Prop41ColorRGB
 90
        0
102
RTVSPost2010PropOp41
 70
     1
102
RTVSPost2010Prop42
 90
       50
102
RTVSPost2010PropOp42
 70
     1
102
RTVSPost2010Prop43
 90
        3
102
RTVSPost2010PropOp43
 70
     1
102
RTVSPost2010Prop44ColorIndex
 90
        5
102
RTVSPost2010Prop44ColorRGB
 90
      255
102
RTVSPost2010PropOp44
 70
     1
102
RTVSPost2010Prop45
280
     0
102
RTVSPost2010PropOp45
 70
     1
102
RTVSPost2010Prop46
 90
       50
102
RTVSPost2010PropOp46
 70
     1
102
RTVSPost2010Prop47
 90
       50
102
RTVSPost2010PropOp47
 70
     1
102
RTVSPost2010Prop48
 90
       50
102
RTVSPost2010PropOp48
 70
     1
102
RTVSPost2010Prop49
280
     0
102
RTVSPost2010PropOp49
 70
     1
102
RTVSPost2010Prop50
 90
       50
102
RTVSPost2010PropOp50
 70
     1
102
RTVSPost2010Prop51ColorIndex
 90
      256
102
RTVSPost2010Prop51ColorRGB
 90
-16777216
102
RTVSPost2010PropOp51
 70
     0
102
RTVSPost2010Prop52
140
1.0
102
RTVSPost2010PropOp52
 70
     0
102
RTVSPost2010Prop53
 90
        2
102
RTVSPost2010PropOp53
 70
     1
102
RTVSPost2010Prop54
  1
strokes_ogs.tif
102
RTVSPost2010PropOp54
 70
     1
102
RTVSPost2010Prop55
280
     0
102
RTVSPost2010PropOp55
 70
     1
102
RTVSPost2010Prop56
140
1.0
102
RTVSPost2010PropOp56
 70
     1
102
RTVSPost2010Prop57
140
1.0
102
RTVSPost2010PropOp57
 70
     1
  0
ENDSEC
  0
EOF
