  0
SECTION
  2
HEADER
  9
$ACADVER
  1
AC1021
  9
$ACADMAINTVER
 70
    25
  9
$DWGCODEPAGE
  3
ANSI_1252
  9
$INSBASE
 10
0.0
 20
0.0
 30
0.0
  9
$EXTMIN
 10
1.000000000000000E+20
 20
1.000000000000000E+20
 30
1.000000000000000E+20
  9
$EXTMAX
 10
-1.000000000000000E+20
 20
-1.000000000000000E+20
 30
-1.000000000000000E+20
  9
$LIMMIN
 10
0.0
 20
0.0
  9
$LIMMAX
 10
12.0
 20
9.0
  9
$ORTHOMODE
 70
     0
  9
$REGENMODE
 70
     1
  9
$FILLMODE
 70
     1
  9
$QTEXTMODE
 70
     0
  9
$MIRRTEXT
 70
     1
  9
$LTSCALE
 40
1.0
  9
$ATTMODE
 70
     1
  9
$TEXTSIZE
 40
0.2
  9
$TRACEWID
 40
0.05
  9
$TEXTSTYLE
  7
Standard
  9
$CLAYER
  8
0
  9
$CELTYPE
  6
ByLayer
  9
$CECOLOR
 62
   256
  9
$CELTSCALE
 40
1.0
  9
$DISPSILH
 70
     0
  9
$DIMSCALE
 40
1.0
  9
$DIMASZ
 40
0.18
  9
$DIMEXO
 40
0.0625
  9
$DIMDLI
 40
0.38
  9
$DIMRND
 40
0.0
  9
$DIMDLE
 40
0.0
  9
$DIMEXE
 40
0.18
  9
$DIMTP
 40
0.0
  9
$DIMTM
 40
0.0
  9
$DIMTXT
 40
0.18
  9
$DIMCEN
 40
0.09
  9
$DIMTSZ
 40
0.0
  9
$DIMTOL
 70
     0
  9
$DIMLIM
 70
     0
  9
$DIMTIH
 70
     1
  9
$DIMTOH
 70
     1
  9
$DIMSE1
 70
     0
  9
$DIMSE2
 70
     0
  9
$DIMTAD
 70
     0
  9
$DIMZIN
 70
     0
  9
$DIMBLK
  1

  9
$DIMASO
 70
     1
  9
$DIMSHO
 70
     1
  9
$DIMPOST
  1

  9
$DIMAPOST
  1

  9
$DIMALT
 70
     0
  9
$DIMALTD
 70
     2
  9
$DIMALTF
 40
25.4
  9
$DIMLFAC
 40
1.0
  9
$DIMTOFL
 70
     0
  9
$DIMTVP
 40
0.0
  9
$DIMTIX
 70
     0
  9
$DIMSOXD
 70
     0
  9
$DIMSAH
 70
     0
  9
$DIMBLK1
  1

  9
$DIMBLK2
  1

  9
$DIMSTYLE
  2
STANDARD_ACAD
  9
$DIMCLRD
 70
     0
  9
$DIMCLRE
 70
     0
  9
$DIMCLRT
 70
     0
  9
$DIMTFAC
 40
1.0
  9
$DIMGAP
 40
0.09
  9
$DIMJUST
 70
     0
  9
$DIMSD1
 70
     0
  9
$DIMSD2
 70
     0
  9
$DIMTOLJ
 70
     1
  9
$DIMTZIN
 70
     0
  9
$DIMALTZ
 70
     0
  9
$DIMALTTZ
 70
     0
  9
$DIMUPT
 70
     0
  9
$DIMDEC
 70
     4
  9
$DIMTDEC
 70
     4
  9
$DIMALTU
 70
     2
  9
$DIMALTTD
 70
     2
  9
$DIMTXSTY
  7
Standard
  9
$DIMAUNIT
 70
     0
  9
$DIMADEC
 70
     0
  9
$DIMALTRND
 40
0.0
  9
$DIMAZIN
 70
     0
  9
$DIMDSEP
 70
    46
  9
$DIMATFIT
 70
     3
  9
$DIMFRAC
 70
     0
  9
$DIMLDRBLK
  1

  9
$DIMLUNIT
 70
     2
  9
$DIMLWD
 70
    -2
  9
$DIMLWE
 70
    -2
  9
$DIMTMOVE
 70
     2
  9
$DIMFXL
 40
1.0
  9
$DIMFXLON
 70
     0
  9
$DIMJOGANG
 40
0.7853981633974483
  9
$DIMTFILL
 70
     0
  9
$DIMTFILLCLR
 70
     0
  9
$DIMARCSYM
 70
     0
  9
$DIMLTYPE
  6

  9
$DIMLTEX1
  6

  9
$DIMLTEX2
  6

  9
$LUNITS
 70
     2
  9
$LUPREC
 70
     3
  9
$SKETCHINC
 40
0.1
  9
$FILLETRAD
 40
0.5
  9
$AUNITS
 70
     0
  9
$AUPREC
 70
     0
  9
$MENU
  1
.
  9
$ELEVATION
 40
0.0
  9
$PELEVATION
 40
0.0
  9
$THICKNESS
 40
0.0
  9
$LIMCHECK
 70
     0
  9
$CHAMFERA
 40
0.0
  9
$CHAMFERB
 40
0.0
  9
$CHAMFERC
 40
0.0
  9
$CHAMFERD
 40
0.0
  9
$SKPOLY
 70
     0
  9
$TDCREATE
 40
2460490.654905972
  9
$TDUCREATE
 40
2460490.321572639
  9
$TDUPDATE
 40
2460490.654916887
  9
$TDUUPDATE
 40
2460490.321583553
  9
$TDINDWG
 40
0.0000000116
  9
$TDUSRTIMER
 40
0.0000000116
  9
$USRTIMER
 70
     1
  9
$ANGBASE
 50
0.0
  9
$ANGDIR
 70
     0
  9
$PDMODE
 70
     0
  9
$PDSIZE
 40
0.0
  9
$PLINEWID
 40
0.0
  9
$SPLFRAME
 70
     0
  9
$SPLINETYPE
 70
     6
  9
$SPLINESEGS
 70
     8
  9
$HANDSEED
  5
199
  9
$SURFTAB1
 70
     6
  9
$SURFTAB2
 70
     6
  9
$SURFTYPE
 70
     6
  9
$SURFU
 70
     6
  9
$SURFV
 70
     6
  9
$UCSBASE
  2

  9
$UCSNAME
  2

  9
$UCSORG
 10
0.0
 20
0.0
 30
0.0
  9
$UCSXDIR
 10
1.0
 20
0.0
 30
0.0
  9
$UCSYDIR
 10
0.0
 20
1.0
 30
0.0
  9
$UCSORTHOREF
  2

  9
$UCSORTHOVIEW
 70
     0
  9
$UCSORGTOP
 10
0.0
 20
0.0
 30
0.0
  9
$UCSORGBOTTOM
 10
0.0
 20
0.0
 30
0.0
  9
$UCSORGLEFT
 10
0.0
 20
0.0
 30
0.0
  9
$UCSORGRIGHT
 10
0.0
 20
0.0
 30
0.0
  9
$UCSORGFRONT
 10
0.0
 20
0.0
 30
0.0
  9
$UCSORGBACK
 10
0.0
 20
0.0
 30
0.0
  9
$PUCSBASE
  2

  9
$PUCSNAME
  2

  9
$PUCSORG
 10
0.0
 20
0.0
 30
0.0
  9
$PUCSXDIR
 10
1.0
 20
0.0
 30
0.0
  9
$PUCSYDIR
 10
0.0
 20
1.0
 30
0.0
  9
$PUCSORTHOREF
  2

  9
$PUCSORTHOVIEW
 70
     0
  9
$PUCSORGTOP
 10
0.0
 20
0.0
 30
0.0
  9
$PUCSORGBOTTOM
 10
0.0
 20
0.0
 30
0.0
  9
$PUCSORGLEFT
 10
0.0
 20
0.0
 30
0.0
  9
$PUCSORGRIGHT
 10
0.0
 20
0.0
 30
0.0
  9
$PUCSORGFRONT
 10
0.0
 20
0.0
 30
0.0
  9
$PUCSORGBACK
 10
0.0
 20
0.0
 30
0.0
  9
$USERI1
 70
     0
  9
$USERI2
 70
     0
  9
$USERI3
 70
     0
  9
$USERI4
 70
     0
  9
$USERI5
 70
     0
  9
$USERR1
 40
0.0
  9
$USERR2
 40
0.0
  9
$USERR3
 40
0.0
  9
$USERR4
 40
0.0
  9
$USERR5
 40
0.0
  9
$WORLDVIEW
 70
     1
  9
$SHADEDGE
 70
     3
  9
$SHADEDIF
 70
    70
  9
$TILEMODE
 70
     1
  9
$MAXACTVP
 70
    64
  9
$PINSBASE
 10
0.0
 20
0.0
 30
0.0
  9
$PLIMCHECK
 70
     0
  9
$PEXTMIN
 10
1.000000000000000E+20
 20
1.000000000000000E+20
 30
1.000000000000000E+20
  9
$PEXTMAX
 10
-1.000000000000000E+20
 20
-1.000000000000000E+20
 30
-1.000000000000000E+20
  9
$PLIMMIN
 10
0.0
 20
0.0
  9
$PLIMMAX
 10
12.0
 20
9.0
  9
$UNITMODE
 70
     0
  9
$VISRETAIN
 70
     1
  9
$PLINEGEN
 70
     0
  9
$PSLTSCALE
 70
     1
  9
$TREEDEPTH
 70
  3020
  9
$CMLSTYLE
  2
Standard
  9
$CMLJUST
 70
     0
  9
$CMLSCALE
 40
1.0
  9
$PROXYGRAPHICS
 70
     1
  9
$MEASUREMENT
 70
     1
  9
$CELWEIGHT
370
    -1
  9
$ENDCAPS
280
     0
  9
$JOINSTYLE
280
     0
  9
$LWDISPLAY
290
     0
  9
$INSUNITS
 70
     4
  9
$HYPERLINKBASE
  1

  9
$STYLESHEET
  1

  9
$XEDIT
290
     1
  9
$CEPSNTYPE
380
     0
  9
$PSTYLEMODE
290
     1
  9
$FINGERPRINTGUID
  2
{884d4f2f-e4f8-4042-8400-dea22eae5050}
  9
$VERSIONGUID
  2
{FAEB1C32-E019-11D5-929B-00C0DF256EC4}
  9
$EXTNAMES
290
     1
  9
$PSVPSCALE
 40
0.0
  9
$OLESTARTUP
290
     0
  9
$SORTENTS
280
   127
  9
$INDEXCTL
280
     0
  9
$HIDETEXT
280
     1
  9
$XCLIPFRAME
290
     0
  9
$HALOGAP
280
     0
  9
$OBSCOLOR
 70
   257
  9
$OBSLTYPE
280
     0
  9
$INTERSECTIONDISPLAY
280
     0
  9
$INTERSECTIONCOLOR
 70
   257
  9
$DIMASSOC
280
     2
  9
$PROJECTNAME
  1

  9
$CAMERADISPLAY
290
     0
  9
$LENSLENGTH
 40
50.0
  9
$CAMERAHEIGHT
 40
0.0
  9
$STEPSPERSEC
 40
2.0
  9
$STEPSIZE
 40
6.0
  9
$3DDWFPREC
 40
2.0
  9
$PSOLWIDTH
 40
0.25
  9
$PSOLHEIGHT
 40
4.0
  9
$LOFTANG1
 40
1.570796326794897
  9
$LOFTANG2
 40
1.570796326794897
  9
$LOFTMAG1
 40
0.0
  9
$LOFTMAG2
 40
0.0
  9
$LOFTPARAM
 70
     7
  9
$LOFTNORMALS
280
     1
  9
$LATITUDE
 40
37.795
  9
$LONGITUDE
 40
-122.394
  9
$NORTHDIRECTION
 40
0.0
  9
$TIMEZONE
 70
 -8000
  9
$LIGHTGLYPHDISPLAY
280
     1
  9
$TILEMODELIGHTSYNCH
280
     1
  9
$CMATERIAL
347
44
  9
$SOLIDHIST
280
     0
  9
$SHOWHIST
280
     1
  9
$DWFFRAME
280
     2
  9
$DGNFRAME
280
     2
  9
$REALWORLDSCALE
290
     1
  9
$INTERFERECOLOR
 62
   256
  9
$CSHADOW
280
     0
  9
$SHADOWPLANELOCATION
 40
0.0
  0
ENDSEC
  0
SECTION
  2
CLASSES
  0
CLASS
  1
ACDBDICTIONARYWDFLT
  2
AcDbDictionaryWithDefault
  3
ObjectDBX Classes
 90
        0
 91
        3
280
     0
281
     0
  0
CLASS
  1
VISUALSTYLE
  2
AcDbVisualStyle
  3
ObjectDBX Classes
 90
     4095
 91
        3
280
     0
281
     0
  0
CLASS
  1
MATERIAL
  2
AcDbMaterial
  3
ObjectDBX Classes
 90
     1153
 91
        3
280
     0
281
     0
  0
CLASS
  1
SCALE
  2
AcDbScale
  3
ObjectDBX Classes
 90
     1153
 91
        3
280
     0
281
     0
  0
CLASS
  1
TABLESTYLE
  2
AcDbTableStyle
  3
ObjectDBX Classes
 90
     4095
 91
        3
280
     0
281
     0
  0
CLASS
  1
MLEADERSTYLE
  2
AcDbMLeaderStyle
  3
ACDB_MLEADERSTYLE_CLASS
 90
     4095
 91
        3
280
     0
281
     0
  0
CLASS
  1
SUN
  2
AcDbSun
  3
SCENEOE
 90
     1153
 91
        3
280
     0
281
     0
  0
CLASS
  1
DICTIONARYVAR
  2
AcDbDictionaryVar
  3
ObjectDBX Classes
 90
        0
 91
        3
280
     0
281
     0
  0
CLASS
  1
CELLSTYLEMAP
  2
AcDbCellStyleMap
  3
ObjectDBX Classes
 90
     1152
 91
        3
280
     0
281
     0
  0
ENDSEC
  0
SECTION
  2
TABLES
  0
TABLE
  2
VPORT
  5
8
330
0
100
AcDbSymbolTable
 70
     1
  0
VPORT
  5
29
330
8
100
AcDbSymbolTableRecord
100
AcDbViewportTableRecord
  2
*Active
 70
     0
 10
0.0
 20
0.0
 11
1.0
 21
1.0
 12
10.42990654205607
 22
4.5
 13
0.0
 23
0.0
 14
0.5
 24
0.5
 15
0.5
 25
0.5
 16
0.0
 26
0.0
 36
1.0
 17
0.0
 27
0.0
 37
0.0
 40
9.0
 41
1.972972972850329
 42
50.0
 43
0.0
 44
0.0
 50
0.0
 51
0.0
 71
     0
 72
   100
 73
     1
 74
     3
 75
     0
 76
     0
 77
     0
 78
     0
281
     0
 65
     1
110
0.0
120
0.0
130
0.0
111
1.0
121
0.0
131
0.0
112
0.0
122
1.0
132
0.0
 79
     0
146
0.0
348
2F
 60
     3
 61
     5
292
     1
282
     1
141
0.0
142
0.0
 63
   250
361
6D
  0
ENDTAB
  0
TABLE
  2
LTYPE
  5
5
330
0
100
AcDbSymbolTable
 70
     1
  0
LTYPE
  5
14
330
5
100
AcDbSymbolTableRecord
100
AcDbLinetypeTableRecord
  2
ByBlock
 70
     0
  3

 72
    65
 73
     0
 40
0.0
  0
LTYPE
  5
15
330
5
100
AcDbSymbolTableRecord
100
AcDbLinetypeTableRecord
  2
ByLayer
 70
     0
  3

 72
    65
 73
     0
 40
0.0
  0
LTYPE
  5
16
330
5
100
AcDbSymbolTableRecord
100
AcDbLinetypeTableRecord
  2
Continuous
 70
     0
  3
Solid line
 72
    65
 73
     0
 40
0.0
  0
ENDTAB
  0
TABLE
  2
LAYER
  5
2
330
0
100
AcDbSymbolTable
 70
     1
  0
LAYER
  5
10
330
2
100
AcDbSymbolTableRecord
100
AcDbLayerTableRecord
  2
0
 70
     0
 62
    18
420
        0
  6
Continuous
370
    -3
390
F
347
46
  0
ENDTAB
  0
TABLE
  2
STYLE
  5
3
330
0
100
AcDbSymbolTable
 70
     1
  0
STYLE
  5
11
330
3
100
AcDbSymbolTableRecord
100
AcDbTextStyleTableRecord
  2
Standard
 70
     0
 40
0.0
 41
1.0
 50
0.0
 71
     0
 42
0.2
  3
txt
  4

  0
ENDTAB
  0
TABLE
  2
VIEW
  5
6
330
0
100
AcDbSymbolTable
 70
     0
  0
ENDTAB
  0
TABLE
  2
UCS
  5
7
330
0
100
AcDbSymbolTable
 70
     0
  0
ENDTAB
  0
TABLE
  2
APPID
  5
9
330
0
100
AcDbSymbolTable
 70
     2
  0
APPID
  5
12
330
9
100
AcDbSymbolTableRecord
100
AcDbRegAppTableRecord
  2
ACAD
 70
     0
  0
APPID
  5
191
330
9
100
AcDbSymbolTableRecord
100
AcDbRegAppTableRecord
  2
ACAD_MLEADERVER
 70
     0
  0
ENDTAB
  0
TABLE
  2
DIMSTYLE
  5
A
330
0
100
AcDbSymbolTable
 70
     1
100
AcDbDimStyleTable
  0
DIMSTYLE
105
27
330
A
100
AcDbSymbolTableRecord
100
AcDbDimStyleTableRecord
  2
STANDARD_ACAD
 70
     0
178
     0
340
11
  0
ENDTAB
  0
TABLE
  2
BLOCK_RECORD
  5
1
330
0
100
AcDbSymbolTable
 70
     1
  0
BLOCK_RECORD
  5
1F
330
1
100
AcDbSymbolTableRecord
100
AcDbBlockTableRecord
  2
*Model_Space
340
22
 70
     0
280
     1
281
     0
  0
BLOCK_RECORD
  5
1B
330
1
100
AcDbSymbolTableRecord
100
AcDbBlockTableRecord
  2
*Paper_Space
340
1E
 70
     0
280
     1
281
     0
  0
BLOCK_RECORD
  5
23
330
1
100
AcDbSymbolTableRecord
100
AcDbBlockTableRecord
  2
*Paper_Space0
340
26
 70
     0
280
     1
281
     0
  0
ENDTAB
  0
ENDSEC
  0
SECTION
  2
BLOCKS
  0
BLOCK
  5
20
330
1F
100
AcDbEntity
  8
0
100
AcDbBlockBegin
  2
*Model_Space
 70
     0
 10
0.0
 20
0.0
 30
0.0
  3
*Model_Space
  1

  0
ENDBLK
  5
21
330
1F
100
AcDbEntity
  8
0
100
AcDbBlockEnd
  0
BLOCK
  5
1C
330
1B
100
AcDbEntity
 67
     1
  8
0
100
AcDbBlockBegin
  2
*Paper_Space
 70
     0
 10
0.0
 20
0.0
 30
0.0
  3
*Paper_Space
  1

  0
ENDBLK
  5
1D
330
1B
100
AcDbEntity
 67
     1
  8
0
100
AcDbBlockEnd
  0
BLOCK
  5
24
330
23
100
AcDbEntity
  8
0
100
AcDbBlockBegin
  2
*Paper_Space0
 70
     0
 10
0.0
 20
0.0
 30
0.0
  3
*Paper_Space0
  1

  0
ENDBLK
  5
25
330
23
100
AcDbEntity
  8
0
100
AcDbBlockEnd
  0
ENDSEC
  0
SECTION
  2
ENTITIES
  0
SPLINE
  5
6E
330
1F
100
AcDbEntity
  8
0
100
AcDbSpline
 70
     0
 71
     3
 72
    38
 73
    34
 74
     0
 42
0.000000001
 43
0.0000000001
 40
-0.1025791230004266
 40
-0.1025791230004266
 40
-0.1025791230004266
 40
-0.1025791230004266
 40
-0.0961688960250987
 40
-0.0961688960250987
 40
-0.0897586690497708
 40
-0.0897586690497708
 40
-0.0833425394179356
 40
-0.0833425394179356
 40
-0.0769264097861004
 40
-0.0769264097861004
 40
-0.0705191812946689
 40
-0.0705191812946689
 40
-0.0641119528032374
 40
-0.0641119528032374
 40
-0.0577007570235227
 40
-0.0577007570235227
 40
-0.051289561243808
 40
-0.051289561243808
 40
-0.0448769969984611
 40
-0.0448769969984611
 40
-0.0384644327531142
 40
-0.0384644327531142
 40
-0.0320575222844621
 40
-0.0320575222844621
 40
-0.0256506118158099
 40
-0.0256506118158099
 40
-0.0192408120869228
 40
-0.0192408120869228
 40
-0.0128310123580356
 40
-0.0128310123580356
 40
-0.0064155061790178
 40
-0.0064155061790178
 40
0.0
 40
0.0
 40
0.0
 40
0.0
 10
0.0000000000000289
 20
-32.80947255979864
 30
-109.2000947368312
 10
-2.147089440515013
 20
-32.80947255979864
 30
-109.2000947368309
 10
-4.294112230255332
 20
-32.59803730570539
 30
-109.1966020144906
 10
-8.505780834047503
 20
-31.76040189344805
 30
-109.1831588186797
 10
-10.57030010826021
 20
-31.13422682597272
 30
-109.1732127188251
 10
-14.53945353252517
 20
-29.4904070666661
 30
-109.1483600584353
 10
-16.44382737558708
 20
-28.47244715388535
 30
-109.1334584569363
 10
-20.01726379852062
 20
-26.0842645230671
 30
-109.1009655991205
 10
-21.68623431733138
 20
-24.7141032697163
 30
-109.0833869795206
 10
-24.72252337417304
 20
-21.67633946397792
 30
-109.0482432784215
 10
-26.09018340162933
 20
-20.00922864517941
 30
-109.030691961525
 10
-28.47429281695131
 20
-16.44024177073554
 30
-108.9982481491648
 10
-29.49068242571543
 20
-14.53845454580978
 30
-108.9833684143866
 10
-31.13372136009833
 20
-10.57185461176644
 30
-108.958525751677
 10
-31.76008417226157
 20
-8.507048902916177
 30
-108.9485758546087
 10
-32.59797203490362
 20
-4.294769711799299
 30
-108.9351265670202
 10
-32.80947255924777
 20
-2.147413211662373
 30
-108.9316325416323
 10
-32.80947256034955
 20
2.147871558803013
 30
-108.9316324625987
 10
-32.59788273103568
 20
4.295676549633967
 30
-108.9351280272295
 10
-31.75964081987028
 20
8.508819574903402
 30
-108.9485829442539
 10
-31.13301161090507
 20
10.57403771871579
 30
-108.9585368763577
 10
-29.48950566186686
 20
14.54082564358864
 30
-108.983385954519
 10
-28.47301685695534
 20
16.44243765367226
 30
-108.9982663275689
 10
-26.08876132081402
 20
20.011071377539
 30
-109.0307104982128
 10
-24.721054348385
 20
21.67800430233411
 30
-109.0482614100006
 10
-21.68614373049892
 20
24.71399852156235
 30
-109.0833868981477
 10
-20.01887969082165
 20
26.08284980842732
 30
-109.1009476857181
 10
-16.44927760821085
 20
28.4691388063036
 30
-109.1334121124283
 10
-14.54703077375188
 20
29.48651565963375
 30
-109.1483028938592
 10
-10.57873417466813
 20
31.1314841260622
 30
-109.1731695900907
 10
-8.512650550739137
 20
31.75868091361562
 30
-109.1831310642983
 10
-4.297648774008469
 20
32.59768776749536
 30
-109.1965965401555
 10
-2.148857778558558
 20
32.80947255979861
 30
-109.2000947368311
 10
0.0000000000000165
 20
32.80947255979861
 30
-109.2000947368313
  0
LINE
  5
6F
330
1F
100
AcDbEntity
  8
0
100
AcDbLine
 10
0.0
 20
-32.80947255979863
 30
-115.0
 11
0.0000000000000289
 21
-32.80947255979864
 31
-109.2000947368312
  0
ARC
  5
70
330
1F
100
AcDbEntity
  8
0
100
AcDbCircle
 10
0.0
 20
-0.0000000000000107
 30
-115.0
 40
32.80947255979862
100
AcDbArc
 50
90.00000000000001
 51
270.0
  0
LINE
  5
71
330
1F
100
AcDbEntity
  8
0
100
AcDbLine
 10
0.0000000000000165
 20
32.80947255979861
 30
-109.2000947368313
 11
0.0
 21
32.80947255979861
 31
-115.0
  0
SPLINE
  5
72
330
1F
100
AcDbEntity
  8
0
100
AcDbSpline
210
0.0
220
0.0
230
1.0
 70
     8
 71
     3
 72
    25
 73
    21
 74
     0
 42
0.000000001
 43
0.0000000001
 40
-0.7788655884446406
 40
-0.7788655884446406
 40
-0.7788655884446406
 40
-0.7788655884446406
 40
-0.6944779119022096
 40
-0.525702558817348
 40
-0.441314882274917
 40
-0.441314882274917
 40
-0.4391644260110687
 40
-0.4370139697472203
 40
-0.4348635134833716
 40
-0.4327130572195233
 40
-0.4327130572195233
 40
-0.326685240230523
 40
-0.2206574232415226
 40
-0.1146296062525225
 40
-0.0086017892635219
 40
-0.0086017892635219
 40
-0.0064513419476414
 40
-0.0043008946317608
 40
-0.0021504473158805
 40
0.0
 40
0.0
 40
0.0
 40
0.0
 10
217.5
 20
69.99999999556107
 30
0.0000000000000116
 10
217.5
 20
42.54513266374501
 30
0.0000000000000063
 10
217.4999999999996
 20
-39.92077291129383
 30
0.0000000000000135
 10
217.4999999999998
 20
-150.0792363478433
 30
0.0000000000000244
 10
217.4999999999999
 20
-232.5451355025544
 30
0.0000000000000245
 10
217.5000000000001
 20
-260.6996339675001
 30
0.0000000000000281
 10
217.21135857581
 20
-262.0116993514724
 30
0.0000000000000281
 10
216.1362772886607
 20
-263.6030787071365
 30
0.0000000000000281
 10
214.5478997940605
 20
-264.6980608287794
 30
0.0000000000000281
 10
213.2170521415641
 20
-265.0000000000002
 30
0.0000000000000352
 10
177.1458870100653
 20
-265.0000000000001
 30
0.0000000000000282
 10
106.3440776816476
 20
-264.9999999999999
 30
0.0000000000000248
 10
0.0000047751175046
 20
-265.0000000000002
 30
0.0000000000000286
 10
-106.3440703464622
 20
-264.9999999999999
 30
0.0000000000000252
 10
-177.1458840857486
 20
-264.9999999999999
 30
0.000000000000036
 10
-213.2170492172477
 20
-265.0000000000001
 30
0.0000000000000254
 10
-214.5478967754132
 20
-264.6980626147194
 30
0.0000000000000361
 10
-216.136277704399
 20
-263.6030789251917
 30
0.0000000000000254
 10
-217.2113603412062
 20
-262.0116961788451
 30
0.0000000000000361
 10
-217.5
 20
-260.6996311286904
 30
0.0000000000000254
 10
-217.4999999999999
 20
-259.9999999955608
 30
0.000000000000029
  0
SPLINE
  5
73
330
1F
100
AcDbEntity
  8
0
100
AcDbSpline
210
0.0
220
0.0
230
1.0
 70
    24
 71
     2
 72
     6
 73
     3
 74
     0
 42
0.000000001
 43
0.0000000001
 40
-0.9999999999999999
 40
-0.9999999999999999
 40
-0.9999999999999999
 40
0.0000000000000001
 40
0.0000000000000001
 40
0.0000000000000001
 10
182.5
 20
65.00000073848443
 30
-100.8770215329517
 10
200.0
 20
67.50000036702275
 30
-50.43851076647582
 10
217.5
 20
69.99999999556107
 30
0.0000000000000116
  0
SPLINE
  5
74
330
1F
100
AcDbEntity
  8
0
100
AcDbSpline
 70
     0
 71
     3
 72
    25
 73
    21
 74
     0
 42
0.000000001
 43
0.0000000001
 40
0.666103968425218
 40
0.666103968425218
 40
0.666103968425218
 40
0.666103968425218
 40
0.6679787561183136
 40
0.669853543811409
 40
0.6717283315045046
 40
0.6736031191976003
 40
0.6736031191976003
 40
0.7660395369367531
 40
0.8584759546759055
 40
0.9509123724150581
 40
1.043348790154211
 40
1.043348790154211
 40
1.04522358564826
 40
1.04709838114231
 40
1.048973176636359
 40
1.050847972130408
 40
1.050847972130408
 40
1.124418236448138
 40
1.271558765083598
 40
1.345129029401327
 40
1.345129029401327
 40
1.345129029401327
 40
1.345129029401327
 10
-182.5
 20
-225.0000007384843
 30
-100.8770215329517
 10
-182.5
 20
-225.6168255173084
 30
-100.8770215329517
 10
-182.2601835351242
 20
-226.9119669637408
 30
-100.8989966715181
 10
-181.114195921605
 20
-228.6660351665547
 30
-101.0033941631293
 10
-179.3619830313389
 20
-229.7738192689323
 30
-101.1616080803608
 10
-178.0995191234446
 20
-229.9999999999999
 30
-101.2744357542969
 10
-147.9407425570014
 20
-230.0
 30
-103.9548767906603
 10
-88.78606353261866
 20
-230.0
 30
-107.8898803831093
 10
-0.000004058171858
 20
-229.9999999999998
 30
-109.855179740074
 10
88.786057288021
 20
-230.0000000000001
 30
-107.8898807149085
 10
147.9407400580494
 20
-230.0000000000001
 30
-103.9548770127614
 10
178.0995215883217
 20
-230.0
 30
-101.2744355352244
 10
179.3621317708633
 20
-229.7745403674679
 30
-101.1615964196054
 10
181.1141474443278
 20
-228.6660193839593
 30
-101.0033981003437
 10
182.2597160033522
 20
-226.9119271253748
 30
-100.8990394531929
 10
182.5000000000001
 20
-225.6168280632552
 30
-100.8770215329517
 10
182.5000000000001
 20
-200.7946111101659
 30
-100.8770215329517
 10
182.4999999999999
 20
-128.2657738629006
 30
-100.8770215329518
 10
182.4999999999996
 20
-31.73421824950356
 30
-100.8770215329517
 10
182.5
 20
40.79461354561047
 30
-100.8770215329516
 10
182.5
 20
65.00000073848443
 30
-100.8770215329517
  0
SPLINE
  5
75
330
1F
100
AcDbEntity
  8
0
100
AcDbSpline
210
0.0
220
0.0
230
1.0
 70
    24
 71
     2
 72
     6
 73
     3
 74
     0
 42
0.000000001
 43
0.0000000001
 40
22.10105149894839
 40
22.10105149894839
 40
22.10105149894839
 40
137.3970207074342
 40
137.3970207074342
 40
137.3970207074342
 10
-217.4999999999999
 20
-259.9999999955608
 30
0.000000000000029
 10
-200.0
 20
-242.5000003670226
 30
-50.43851076647582
 10
-182.5
 20
-225.0000007384843
 30
-100.8770215329517
  0
ARC
  5
76
330
1F
100
AcDbEntity
  8
0
100
AcDbCircle
 10
0.0
 20
130.0
 30
-115.0
 40
17.50000000000003
100
AcDbArc
 50
90.00000000000001
 51
270.0
  0
LINE
  5
77
330
1F
100
AcDbEntity
  8
0
100
AcDbLine
 10
0.0
 20
147.5
 30
-0.0000000000000042
 11
0.0000000000000004
 21
147.5
 31
-115.0
  0
ARC
  5
78
330
1F
100
AcDbEntity
  8
0
100
AcDbCircle
 10
0.0
 20
130.0
 30
-0.000000000000009
 40
17.50000000000003
210
-2.036069725517918E-16
220
-7.299006661681489E-17
230
-1.0
100
AcDbArc
 50
270.0
 51
90.0
  0
LINE
  5
79
330
1F
100
AcDbEntity
  8
0
100
AcDbLine
 10
-0.0000000000000004
 20
112.5
 30
-115.0
 11
0.0
 21
112.5
 31
0.0000000000000008
  0
ARC
  5
7A
330
1F
100
AcDbEntity
  8
0
100
AcDbCircle
 10
0.0
 20
-0.0000000000000142
 30
-179.9229000000021
 40
32.62138378181864
100
AcDbArc
 50
270.0
 51
90.0
  0
LINE
  5
7B
330
1F
100
AcDbEntity
  8
0
100
AcDbLine
 10
0.0
 20
32.62138378181862
 30
-179.9229000000016
 11
0.0000000000000015
 21
32.77420104476752
 31
-178.2349199405893
  0
ARC
  5
7C
330
1F
100
AcDbEntity
  8
0
100
AcDbCircle
 10
0.0000000000364437
 20
-0.0000000000370675
 30
178.2349199405961
 40
32.77420104476763
210
2.035180241131661E-13
220
2.073370452188194E-13
230
-1.0
100
AcDbArc
 50
90.0000000000003
 51
156.2560671221819
  0
LINE
  5
7D
330
1F
100
AcDbEntity
  8
0
100
AcDbLine
 10
-0.0000000000000008
 20
-35.78858036865847
 30
-144.9388636440643
 11
0.0
 21
-32.62138378181865
 31
-179.9229000000016
  0
SPLINE
  5
7E
330
1F
100
AcDbEntity
  8
0
100
AcDbSpline
 70
     0
 71
     3
 72
    46
 73
    42
 74
     0
 42
0.000000001
 43
0.0000000001
 40
0.1485356965038664
 40
0.1485356965038664
 40
0.1485356965038664
 40
0.1485356965038664
 40
0.1509450389009152
 40
0.1509450389009152
 40
0.1533543812979639
 40
0.1533543812979639
 40
0.1557637236950127
 40
0.1557637236950127
 40
0.1581730660920614
 40
0.1581730660920614
 40
0.1605809571678487
 40
0.1605809571678487
 40
0.162988848243636
 40
0.162988848243636
 40
0.1653967393194233
 40
0.1653967393194233
 40
0.1678046303952105
 40
0.1678046303952105
 40
0.1726251424423028
 40
0.1726251424423028
 40
0.177445654489395
 40
0.177445654489395
 40
0.1870821362590853
 40
0.1870821362590853
 40
0.1967186177205385
 40
0.1967186177205385
 40
0.1991277395278813
 40
0.1991277395278813
 40
0.201536861335224
 40
0.201536861335224
 40
0.2039459831425668
 40
0.2039459831425668
 40
0.2063551049499096
 40
0.2063551049499096
 40
0.2111733472077621
 40
0.2111733472077621
 40
0.2159915894656146
 40
0.2159915894656146
 40
0.220809832529637
 40
0.220809832529637
 40
0.2256280755936594
 40
0.2256280755936594
 40
0.2256280755936594
 40
0.2256280755936594
 10
30.00000000000001
 20
19.51166532672233
 30
-144.9569813042292
 10
30.52048020460655
 20
18.71114302215612
 30
-144.958560728861
 10
31.00783752966437
 20
17.89002677931412
 30
-144.9600296185869
 10
31.89189671096303
 20
16.26130881143542
 30
-144.9623060474218
 10
32.29571324232878
 20
15.44315551578756
 30
-144.9631542328441
 10
33.04389691069102
 20
13.7697092032872
 30
-144.9642514438073
 10
33.38818066561073
 20
12.91513310373155
 30
-144.9644959082563
 10
34.02363396768916
 20
11.13408637354649
 30
-144.9645061007135
 10
34.32090344027655
 20
10.18788573204946
 30
-144.9644152574373
 10
34.84826319985255
 20
8.207213189304296
 30
-144.964350399794
 10
35.07437834542618
 20
7.176939916758328
 30
-144.9643347010452
 10
35.42948042635484
 20
5.145217357983958
 30
-144.9643422394003
 10
35.55742826028207
 20
4.14719226777606
 30
-144.9643211345879
 10
35.72791336201441
 20
2.251472327446342
 30
-144.9642781670281
 10
35.77042948835548
 20
1.356986528306029
 30
-144.9642584343341
 10
35.79442878384359
 20
-0.3203147519567769
 30
-144.9642554455461
 10
35.77764555394415
 20
-1.118053105643161
 30
-144.9642533602244
 10
35.64840797347833
 20
-3.527742393485098
 30
-144.9641353350269
 10
35.45533294635759
 20
-5.100586231943647
 30
-144.9639600187176
 10
34.87686294610085
 20
-8.167035105821466
 30
-144.9635471172279
 10
34.49151270477903
 20
-9.66050875370152
 30
-144.9633375753476
 10
33.0728239727832
 20
-14.00478158984413
 30
-144.9627697230934
 10
31.77877910153516
 20
-16.72097144858576
 30
-144.9624913018987
 10
28.59020263926187
 20
-21.72723856906233
 30
-144.9623442498938
 10
26.69555114325901
 20
-24.01862201004592
 30
-144.9624819432853
 10
23.98247804283197
 20
-26.57183956341427
 30
-144.9627426765792
 10
23.43560993249505
 20
-27.05436486810779
 30
-144.9627801815061
 10
22.35605808545834
 20
-27.9530633521913
 30
-144.9622399334633
 10
21.81234887165134
 20
-28.38018113453903
 30
-144.9616735576367
 10
20.65611742342661
 20
-29.2330344936187
 30
-144.9599861733217
 10
20.03141209231251
 20
-29.66483878334151
 30
-144.958896438972
 10
18.77120931491914
 20
-30.47802666312253
 30
-144.9568292418674
 10
18.12678509323134
 20
-30.86583080829597
 30
-144.9557922095376
 10
16.15448502592603
 20
-31.96937726766738
 30
-144.9527040978862
 10
14.78726622944477
 20
-32.62487791957384
 30
-144.950676166421
 10
11.97216999069473
 20
-33.75994701048773
 30
-144.9468996750963
 10
10.52436754959573
 20
-34.23950637422482
 30
-144.9451484938315
 10
7.57510864768694
 20
-35.01057102820881
 30
-144.9421826684321
 10
6.073795920821603
 20
-35.30225880401422
 30
-144.9409782683643
 10
3.047206519052513
 20
-35.69105830099792
 30
-144.9393183400916
 10
1.521972672611643
 20
-35.78858036865848
 30
-144.9388636440643
 10
-0.0000000000000008
 20
-35.78858036865847
 30
-144.9388636440643
  0
SPLINE
  5
7F
330
1F
100
AcDbEntity
  8
0
100
AcDbSpline
210
0.0
220
0.0
230
1.0
 70
     8
 71
     3
 72
    15
 73
    11
 74
     0
 42
0.000000001
 43
0.0000000001
 40
0.0
 40
0.0
 40
0.0
 40
0.0
 40
4.908738513812729
 40
9.817477037242545
 40
14.72621556067257
 40
19.63495408410238
 40
24.5436926075324
 40
29.45243113096242
 40
34.36116965439224
 40
39.26990816985669
 40
39.26990816985669
 40
39.26990816985669
 40
39.26990816985669
 10
170.0000000000157
 20
79.99999999999999
 30
-115.0
 10
171.5592751829587
 20
79.9999999994261
 30
-115.0
 10
174.7262318524147
 20
79.70706692170441
 30
-114.9999999999999
 10
179.4216080180443
 20
78.33147547301985
 30
-115.0000000000001
 10
183.8368673463901
 20
76.02153026062967
 30
-114.9999999999998
 10
187.7461336172383
 20
72.84781236162135
 30
-115.0000000000001
 10
190.9486743750816
 20
68.94928205345755
 30
-114.9999999999999
 10
193.2941405822449
 20
64.52007043460037
 30
-114.9999999999999
 10
194.6990491249915
 20
59.78584697892303
 30
-115.0000000000001
 10
194.9999999995117
 20
56.58022269280924
 30
-115.0
 10
195.0
 20
55.00000000000003
 30
-115.0
  0
SPLINE
  5
80
330
1F
100
AcDbEntity
  8
0
100
AcDbSpline
210
1.415189121496880E-11
220
2.265408850303808E-10
230
-1.0
 70
     8
 71
     3
 72
     8
 73
     4
 74
     0
 42
0.000000001
 43
0.0000000001
 40
-1.0
 40
-1.0
 40
-1.0
 40
-1.0
 40
-0.0000000085208279
 40
-0.0000000085208279
 40
-0.0000000085208279
 40
-0.0000000085208279
 10
195.0
 20
-229.9999999999999
 30
-115.0
 10
195.0000353148843
 20
-230.9979252481978
 30
-115.000000000226
 10
194.9400735789747
 20
-232.0046123343684
 30
-115.0000000004549
 10
194.8180297240189
 20
-233.0113912220299
 30
-115.0000000006847
  0
SPLINE
  5
81
330
1F
100
AcDbEntity
  8
0
100
AcDbSpline
210
-1.0
220
-5.531411912365042E-18
230
-2.100076455438255E-17
 70
     8
 71
     3
 72
    10
 73
     6
 74
     0
 42
0.000000001
 43
0.0000000001
 40
30.08823095811417
 40
30.08823095811417
 40
30.08823095811417
 40
30.08823095811417
 40
65.51868759336563
 40
65.51868759336563
 40
277.8753399525022
 40
277.8753399525022
 40
277.8753399525022
 40
277.8753399525022
 10
-0.0000000000000001
 20
-233.543083177663
 30
-125.7666313476444
 10
-0.0000000000000001
 20
-224.6945654590575
 30
-128.9913811311604
 10
-0.0000000000000001
 20
-215.4143582073057
 30
-131.0129964457204
 10
-0.0000000000000006
 20
-149.2300833965475
 30
-136.1440719111872
 10
-0.000000000000001
 20
-92.5093318826035
 30
-140.5414677776259
 10
-0.0000000000000008
 20
-35.78858036865847
 30
-144.9388636440643
  0
ARC
  5
82
330
1F
100
AcDbEntity
  8
0
100
AcDbCircle
 10
0.0
 20
-0.0000000000000053
 30
115.0
 40
22.0
210
0.0
220
0.0
230
-1.0
100
AcDbArc
 50
270.0
 51
90.0
  0
LINE
  5
83
330
1F
100
AcDbEntity
  8
0
100
AcDbLine
 10
0.0
 20
-22.00000000000001
 30
-179.9228999999998
 11
0.0
 21
-22.00000000000001
 31
-115.0
  0
ARC
  5
84
330
1F
100
AcDbEntity
  8
0
100
AcDbCircle
 10
0.0
 20
-0.0000000000000124
 30
-179.9228999999998
 40
22.0
100
AcDbArc
 50
90.00000000000001
 51
270.0
  0
LINE
  5
85
330
1F
100
AcDbEntity
  8
0
100
AcDbLine
 10
0.0
 20
21.99999999999999
 30
-115.0
 11
0.0
 21
21.99999999999999
 31
-179.9228999999998
  0
ARC
  5
86
330
1F
100
AcDbEntity
  8
0
100
AcDbCircle
 10
0.0
 20
-0.0000000000000089
 30
115.0
 40
22.0
210
0.0
220
0.0
230
-1.0
100
AcDbArc
 50
90.00000000000001
 51
270.0
  0
ARC
  5
87
330
1F
100
AcDbEntity
  8
0
100
AcDbCircle
 10
0.0
 20
-0.0000000000000107
 30
-179.9228999999998
 40
22.0
100
AcDbArc
 50
270.0
 51
90.0
  0
SPLINE
  5
88
330
1F
100
AcDbEntity
  8
0
100
AcDbSpline
210
0.0
220
0.0
230
1.0
 70
    24
 71
     2
 72
     6
 73
     3
 74
     0
 42
0.000000001
 43
0.0000000001
 40
-0.3319671861247686
 40
-0.3319671861247686
 40
-0.3319671861247686
 40
-0.3130113976790142
 40
-0.3130113976790142
 40
-0.3130113976790142
 10
30.0
 20
98.95578844575445
 30
-115.0
 10
29.99999999999997
 20
89.47789422287723
 30
-115.0
 10
29.99999999999994
 20
80.0
 30
-115.0
  0
SPLINE
  5
89
330
1F
100
AcDbEntity
  8
0
100
AcDbSpline
210
0.0
220
0.0
230
1.0
 70
    24
 71
     2
 72
     6
 73
     3
 74
     0
 42
0.000000001
 43
0.0000000001
 40
-0.06
 40
-0.06
 40
-0.06
 40
0.0
 40
0.0
 40
0.0
 10
-30.0
 20
98.95578844575444
 30
-115.0
 10
0.0000000000000018
 20
98.95578844575445
 30
-115.0
 10
30.0
 20
98.95578844575445
 30
-115.0
  0
SPLINE
  5
8A
330
1F
100
AcDbEntity
  8
0
100
AcDbSpline
210
0.0
220
0.0
230
1.0
 70
    24
 71
     2
 72
     6
 73
     3
 74
     0
 42
0.000000001
 43
0.0000000001
 40
0.3130113976790142
 40
0.3130113976790142
 40
0.3130113976790142
 40
0.3319671861247686
 40
0.3319671861247686
 40
0.3319671861247686
 10
-30.00000000000012
 20
80.0
 30
-115.0
 10
-30.00000000000006
 20
89.47789422287721
 30
-115.0
 10
-30.0
 20
98.95578844575444
 30
-115.0
  0
SPLINE
  5
8B
330
1F
100
AcDbEntity
  8
0
100
AcDbSpline
210
0.0
220
0.0
230
1.0
 70
    24
 71
     2
 72
     6
 73
     3
 74
     0
 42
0.000000001
 43
0.0000000001
 40
-0.0000000000023171
 40
-0.0000000000023171
 40
-0.0000000000023171
 40
0.1399999999999998
 40
0.1399999999999998
 40
0.1399999999999998
 10
-170.000000002317
 20
80.00000000000003
 30
-115.0
 10
-100.0000000011586
 20
80.00000000000001
 30
-115.0
 10
-30.00000000000012
 20
80.0
 30
-115.0
  0
SPLINE
  5
8C
330
1F
100
AcDbEntity
  8
0
100
AcDbSpline
210
0.0
220
0.0
230
1.0
 70
    24
 71
     2
 72
     6
 73
     3
 74
     0
 42
0.000000001
 43
0.0000000001
 40
-0.2849999999997542
 40
-0.2849999999997542
 40
-0.2849999999997542
 40
0.0000000000004087
 40
0.0000000000004087
 40
0.0000000000004087
 10
-194.9999999999999
 20
-229.9999999997542
 30
-115.0
 10
-195.0
 20
-87.49999999967271
 30
-115.0
 10
-195.0000000000001
 20
55.00000000040876
 30
-115.0
  0
SPLINE
  5
8D
330
1F
100
AcDbEntity
  8
0
100
AcDbSpline
210
0.0
220
0.0
230
1.0
 70
    24
 71
     2
 72
     6
 73
     3
 74
     0
 42
0.000000001
 43
0.0000000001
 40
0.0070073324667451
 40
0.0070073324667451
 40
0.0070073324667451
 40
0.0626819327560991
 40
0.0626819327560991
 40
0.0626819327560991
 10
-250.492667533255
 20
-233.0113976790141
 30
-115.0
 10
-222.6553432710894
 20
-233.0113947545672
 30
-115.0
 10
-194.8180190089239
 20
-233.0113918301203
 30
-115.0
  0
SPLINE
  5
8E
330
1F
100
AcDbEntity
  8
0
100
AcDbSpline
210
0.0
220
0.0
230
1.0
 70
    24
 71
     2
 72
     6
 73
     3
 74
     0
 42
0.000000001
 43
0.0000000001
 40
-0.495
 40
-0.495
 40
-0.495
 40
-0.0619886023209858
 40
-0.0619886023209858
 40
-0.0619886023209858
 10
-250.492667533255
 20
199.9999999999999
 30
-115.0
 10
-250.492667533255
 20
-16.50569883950709
 30
-115.0
 10
-250.492667533255
 20
-233.0113976790141
 30
-115.0
  0
SPLINE
  5
8F
330
1F
100
AcDbEntity
  8
0
100
AcDbSpline
210
0.0
220
0.0
230
1.0
 70
    24
 71
     2
 72
     6
 73
     3
 74
     0
 42
0.000000001
 43
0.0000000001
 40
-0.4949999999999999
 40
-0.4949999999999999
 40
-0.4949999999999999
 40
0.0
 40
0.0
 40
0.0
 10
247.4999999999999
 20
202.9926675332549
 30
-115.0
 10
-0.0000000000000426
 20
202.9926675332549
 30
-115.0
 10
-247.5
 20
202.9926675332549
 30
-115.0
  0
SPLINE
  5
90
330
1F
100
AcDbEntity
  8
0
100
AcDbSpline
210
0.0
220
0.0
230
1.0
 70
    24
 71
     2
 72
     6
 73
     3
 74
     0
 42
0.000000001
 43
0.0000000001
 40
-0.4330113976790141
 40
-0.4330113976790141
 40
-0.4330113976790141
 40
0.0
 40
0.0
 40
0.0
 10
250.492667533255
 20
-233.0113976790141
 30
-115.0
 10
250.4926675332549
 20
-16.5056988395071
 30
-115.0
 10
250.4926675332549
 20
199.9999999999999
 30
-115.0
  0
SPLINE
  5
91
330
1F
100
AcDbEntity
  8
0
100
AcDbSpline
210
0.0
220
0.0
230
1.0
 70
    24
 71
     2
 72
     6
 73
     3
 74
     0
 42
0.000000001
 43
0.0000000001
 40
0.4523180832034052
 40
0.4523180832034052
 40
0.4523180832034052
 40
0.5079926675332551
 40
0.5079926675332551
 40
0.5079926675332551
 10
194.8180297240189
 20
-233.0113912220299
 30
-115.0000000006847
 10
222.6553486286369
 20
-233.011394450522
 30
-115.0000000003423
 10
250.492667533255
 20
-233.0113976790141
 30
-115.0
  0
SPLINE
  5
92
330
1F
100
AcDbEntity
  8
0
100
AcDbSpline
210
0.0
220
0.0
230
1.0
 70
    24
 71
     2
 72
     6
 73
     3
 74
     0
 42
0.000000001
 43
0.0000000001
 40
0.0
 40
0.0
 40
0.0
 40
0.2849999999999998
 40
0.2849999999999998
 40
0.2849999999999998
 10
195.0
 20
55.00000000000003
 30
-115.0
 10
195.0
 20
-87.49999999999993
 30
-115.0
 10
195.0
 20
-229.9999999999999
 30
-115.0
  0
SPLINE
  5
93
330
1F
100
AcDbEntity
  8
0
100
AcDbSpline
210
0.0
220
0.0
230
1.0
 70
    24
 71
     2
 72
     6
 73
     3
 74
     0
 42
0.000000001
 43
0.0000000001
 40
0.2
 40
0.2
 40
0.2
 40
0.3400000000000157
 40
0.3400000000000157
 40
0.3400000000000157
 10
29.99999999999994
 20
80.0
 30
-115.0
 10
100.0000000000078
 20
80.0
 30
-115.0
 10
170.0000000000157
 20
79.99999999999999
 30
-115.0
  0
SPLINE
  5
94
330
1F
100
AcDbEntity
  8
0
100
AcDbSpline
210
0.0
220
0.0
230
1.0
 70
     8
 71
     3
 72
     8
 73
     4
 74
     0
 42
0.000000001
 43
0.0000000001
 40
0.0
 40
0.0
 40
0.0
 40
0.0
 40
3.018715938767557
 40
3.018715938767557
 40
3.018715938767557
 40
3.018715938767557
 10
-194.8180190089239
 20
-233.0113918301203
 30
-115.0
 10
-194.9400665355304
 20
-232.004612742352
 30
-115.0
 10
-195.0000318517336
 20
-230.9979254492306
 30
-115.0
 10
-194.9999999999999
 20
-229.9999999997542
 30
-115.0
  0
SPLINE
  5
95
330
1F
100
AcDbEntity
  8
0
100
AcDbSpline
210
0.0
220
0.0
230
1.0
 70
     8
 71
     3
 72
    15
 73
    11
 74
     0
 42
0.000000001
 43
0.0000000001
 40
0.0000000004087397
 40
0.0000000004087397
 40
0.0000000004087397
 40
0.0000000004087397
 40
4.908738515414684
 40
9.81747703880951
 40
14.72621556220454
 40
19.63495408559937
 40
24.5436926089942
 40
29.45243113238913
 40
34.36116965578411
 40
39.2699081671466
 40
39.2699081671466
 40
39.2699081671466
 40
39.2699081671466
 10
-195.0000000000001
 20
55.00000000040876
 30
-115.0
 10
-194.9999999994858
 20
56.58022269308555
 30
-115.0
 10
-194.699049124951
 20
59.78584697905895
 30
-114.9999999999997
 10
-193.2941405822449
 20
64.52007043460048
 30
-115.0000000000002
 10
-190.9486743750823
 20
68.94928205345745
 30
-114.9999999999999
 10
-187.7461336172372
 20
72.84781236162158
 30
-115.0000000000001
 10
-183.8368673463913
 20
76.0215302606297
 30
-114.9999999999999
 10
-179.4216080180432
 20
78.33147547301988
 30
-115.0000000000001
 10
-174.7262318531852
 20
79.70706692147901
 30
-115.0
 10
-171.5592751845167
 20
79.99999999928201
 30
-115.0
 10
-170.000000002317
 20
80.00000000000003
 30
-115.0
  0
SPLINE
  5
96
330
1F
100
AcDbEntity
  8
0
100
AcDbSpline
 70
     0
 71
     3
 72
    44
 73
    40
 74
     0
 42
0.000000001
 43
0.0000000001
 40
-0.0770144806582392
 40
-0.0770144806582392
 40
-0.0770144806582392
 40
-0.0770144806582392
 40
-0.0746075287961887
 40
-0.0746075287961887
 40
-0.0722005769341382
 40
-0.0722005769341382
 40
-0.0697936250720877
 40
-0.0697936250720877
 40
-0.0673866732100372
 40
-0.0673866732100372
 40
-0.0649801037486305
 40
-0.0649801037486305
 40
-0.0625735342872239
 40
-0.0625735342872239
 40
-0.0601669648258173
 40
-0.0601669648258173
 40
-0.0577603953644106
 40
-0.0577603953644106
 40
-0.0481336603332102
 40
-0.0481336603332102
 40
-0.0385069301887237
 40
-0.0385069301887237
 40
-0.0288802012104246
 40
-0.0288802012104246
 40
-0.0264735173895988
 40
-0.0264735173895988
 40
-0.0240668335687731
 40
-0.0240668335687731
 40
-0.0216601497479473
 40
-0.0216601497479473
 40
-0.0192534659271216
 40
-0.0192534659271216
 40
-0.0144400995756674
 40
-0.0144400995756674
 40
-0.0096267332242131
 40
-0.0096267332242131
 40
-0.0048133666121066
 40
-0.0048133666121066
 40
0.0
 40
0.0
 40
0.0
 40
0.0
 10
-30.0
 20
19.50927293596388
 30
-144.9713884539976
 10
-30.52041835622026
 20
18.70873327539716
 30
-144.9730540202678
 10
-31.0077047475214
 20
17.88762221715128
 30
-144.9745713590455
 10
-31.89160475640492
 20
16.25893851364635
 30
-144.9770675527545
 10
-32.2953186361346
 20
15.44080043103711
 30
-144.9780756918346
 10
-33.04340309030362
 20
13.76741813328224
 30
-144.9796553561356
 10
-33.38763232550357
 20
12.91285064374989
 30
-144.9802273534703
 10
-34.02275610485759
 20
11.13191757938691
 30
-144.9810557785307
 10
-34.31995827665511
 20
10.18567486015491
 30
-144.9813892202808
 10
-34.8472447909026
 20
8.204589011065423
 30
-144.9820451869748
 10
-35.07335698129008
 20
7.173879889452286
 30
-144.9823439620198
 10
-35.42834157637787
 20
5.14142518326576
 30
-144.9828641351303
 10
-35.55619457241049
 20
4.143106396238266
 30
-144.9830633188534
 10
-35.72647220683119
 20
2.246976803520612
 30
-144.9833462686868
 10
-35.7688826692332
 20
1.352368860683859
 30
-144.9834306162142
 10
-35.79259606759828
 20
-0.325069381887101
 30
-144.98348604478
 10
-35.77564183256437
 20
-1.123070579731822
 30
-144.9834447856066
 10
-35.55970896981272
 20
-5.137762513366131
 30
-144.9828054005865
 10
-34.96253187376735
 20
-8.213012830303423
 30
-144.9810247366312
 10
-33.07202434834361
 20
-14.00417822558133
 30
-144.9769681064059
 10
-31.77791878436542
 20
-16.72017839478527
 30
-144.9747353967571
 10
-28.58978940215719
 20
-21.72665104971528
 30
-144.97098573159
 10
-26.69504248175146
 20
-24.01795039683316
 30
-144.9694918297354
 10
-23.98222801763336
 20
-26.5715149600519
 30
-144.9680583459463
 10
-23.43538092189445
 20
-27.05404101364569
 30
-144.9677819480883
 10
-22.35583240467095
 20
-27.9527224120886
 30
-144.9667168743043
 10
-21.81214233338155
 20
-28.37985619812133
 30
-144.9659333816523
 10
-20.6559730242808
 20
-29.23281501678659
 30
-144.9638610749293
 10
-20.03122749241597
 20
-29.66455987394864
 30
-144.9626064922824
 10
-18.77104923536842
 20
-30.47777315315371
 30
-144.9601820754216
 10
-18.12663316128241
 20
-30.86558570074002
 30
-144.9589640084758
 10
-16.15435642745498
 20
-31.96916115076585
 30
-144.9553306995811
 10
-14.78717872375275
 20
-32.62474406318897
 30
-144.9529322174981
 10
-11.9721175708558
 20
-33.75991592007138
 30
-144.9484551695026
 10
-10.52429092360504
 20
-34.23942211017157
 30
-144.9463798145134
 10
-7.575039806716924
 20
-35.01051367529482
 30
-144.9428466684865
 10
-6.073733042568904
 20
-35.30219949708752
 30
-144.941405321127
 10
-3.047179767557714
 20
-35.69116882289433
 30
-144.9394023685171
 10
-1.521947057831609
 20
-35.78858036865847
 30
-144.9388636440644
 10
-0.0000000000000008
 20
-35.78858036865847
 30
-144.9388636440643
  0
ARC
  5
97
330
1F
100
AcDbEntity
  8
0
100
AcDbCircle
 10
0.0
 20
-0.0000000000000142
 30
-179.9229000000021
 40
32.62138378181864
100
AcDbArc
 50
90.00000000000001
 51
270.0
  0
ARC
  5
98
330
1F
100
AcDbEntity
  8
0
100
AcDbCircle
 10
0.0000000000018715
 20
0.000000000042781
 30
178.2349199405808
 40
32.77420104476826
210
8.058693767963722E-15
220
-2.431755656890620E-13
230
-1.0
100
AcDbArc
 50
23.74393287782362
 51
90.00000000000075
  0
ARC
  5
99
330
1F
100
AcDbEntity
  8
0
100
AcDbCircle
 10
247.4999999999999
 20
-295.0000000000001
 30
-0.0000000000055942
 40
5.0
210
9.632735838975237E-15
220
1.065814103640151E-14
230
-1.0
100
AcDbArc
 50
270.0000000000007
 51
0.0
  0
LINE
  5
9A
330
1F
100
AcDbEntity
  8
0
100
AcDbLine
 10
-252.5
 20
-295.0
 30
0.0000000000000179
 11
-249.7944649361262
 21
-295.0
 31
-155.0
  0
ARC
  5
9B
330
1F
100
AcDbEntity
  8
0
100
AcDbCircle
 10
-247.5
 20
-295.0000000000001
 30
-154.9999999999999
 40
2.29446493612619
100
AcDbArc
 50
179.9999999999972
 51
270.0
  0
LINE
  5
9C
330
1F
100
AcDbEntity
  8
0
100
AcDbLine
 10
-247.5
 20
-297.2944649361263
 30
-155.0
 11
-247.5
 21
-300.0000000000001
 31
0.0000000000000126
  0
SPLINE
  5
9D
330
1F
100
AcDbEntity
  8
0
100
AcDbSpline
210
0.0
220
0.0
230
1.0
 70
    24
 71
     2
 72
     6
 73
     3
 74
     0
 42
0.000000001
 43
0.0000000001
 40
0.1118205971136079
 40
0.1118205971136079
 40
0.1118205971136079
 40
0.1518754261745051
 40
0.1518754261745051
 40
0.1518754261745051
 10
-250.492667533255
 20
-233.0113976790141
 30
-115.0
 10
-250.1435662346906
 20
-233.9990520000014
 30
-134.9999999999999
 10
-249.7944649361263
 20
-234.9867063209886
 30
-154.9999999999999
  0
SPLINE
  5
9E
330
1F
100
AcDbEntity
  8
0
100
AcDbSpline
210
0.0
220
0.0
230
1.0
 70
    24
 71
     2
 72
     6
 73
     3
 74
     0
 42
0.000000001
 43
0.0000000001
 40
-0.0600132936790114
 40
-0.0600132936790114
 40
-0.0600132936790114
 40
-0.0000000000000001
 40
-0.0000000000000001
 40
-0.0000000000000001
 10
-249.7944649361263
 20
-234.9867063209886
 30
-154.9999999999999
 10
-249.7944649361262
 20
-264.9933531604943
 30
-154.9999999999999
 10
-249.7944649361262
 20
-295.0
 30
-155.0
  0
SPLINE
  5
9F
330
1F
100
AcDbEntity
  8
0
100
AcDbSpline
210
0.0
220
0.0
230
1.0
 70
    24
 71
     2
 72
     6
 73
     3
 74
     0
 42
0.000000001
 43
0.0000000001
 40
0.0
 40
0.0
 40
0.0
 40
0.495
 40
0.495
 40
0.495
 10
-252.5
 20
-295.0
 30
0.0000000000000179
 10
-252.5
 20
-47.50000000000003
 30
0.0000000000000017
 10
-252.5
 20
199.9999999999999
 30
-0.0000000000000144
  0
SPLINE
  5
A0
330
1F
100
AcDbEntity
  8
0
100
AcDbSpline
210
0.0
220
0.0
230
1.0
 70
    24
 71
     2
 72
     6
 73
     3
 74
     0
 42
0.000000001
 43
0.0000000001
 40
0.0
 40
0.0
 40
0.0
 40
0.1150175177250493
 40
0.1150175177250493
 40
0.1150175177250493
 10
-252.5
 20
199.9999999999999
 30
-0.0000000000000144
 10
-251.4963337666275
 20
199.9999999999999
 30
-57.50000000000001
 10
-250.492667533255
 20
199.9999999999999
 30
-115.0
  0
ARC
  5
A1
330
1F
100
AcDbEntity
  8
0
100
AcDbCircle
 10
-247.5
 20
200.0
 30
-115.0
 40
2.992667533254973
100
AcDbArc
 50
90.0
 51
180.0
  0
ARC
  5
A2
330
1F
100
AcDbEntity
  8
0
100
AcDbCircle
 10
247.5
 20
199.9999999999999
 30
0.0000000000039682
 40
4.999999999999972
210
-7.460698725481093E-15
220
1.034954623754629E-14
230
-1.0
100
AcDbArc
 50
0.0
 51
90.0
  0
LINE
  5
A3
330
1F
100
AcDbEntity
  8
0
100
AcDbLine
 10
-247.5
 20
205.0
 30
-0.0000000000000083
 11
-247.5
 21
202.9926675332549
 31
-115.0
  0
SPLINE
  5
A4
330
1F
100
AcDbEntity
  8
0
100
AcDbSpline
210
0.0
220
0.0
230
1.0
 70
    24
 71
     2
 72
     6
 73
     3
 74
     0
 42
0.000000001
 43
0.0000000001
 40
0.0
 40
0.0
 40
0.0
 40
0.4949999999999999
 40
0.4949999999999999
 40
0.4949999999999999
 10
-247.5
 20
205.0
 30
-0.0000000000000083
 10
-0.0000000000000426
 20
205.0
 30
-0.0000000000000083
 10
247.4999999999999
 20
204.9999999999999
 30
-0.0000000000000082
  0
SPLINE
  5
A5
330
1F
100
AcDbEntity
  8
0
100
AcDbSpline
210
0.0
220
0.0
230
1.0
 70
    24
 71
     2
 72
     6
 73
     3
 74
     0
 42
0.000000001
 43
0.0000000001
 40
0.0
 40
0.0
 40
0.0
 40
0.1150175177250493
 40
0.1150175177250493
 40
0.1150175177250493
 10
247.4999999999999
 20
204.9999999999999
 30
-0.0000000000000082
 10
247.4999999999999
 20
203.9963337666274
 30
-57.50000000000001
 10
247.4999999999999
 20
202.9926675332549
 30
-115.0
  0
ARC
  5
A6
330
1F
100
AcDbEntity
  8
0
100
AcDbCircle
 10
247.4999999999999
 20
199.9999999999999
 30
-115.0
 40
2.992667533254973
100
AcDbArc
 50
0.0000000000005441
 51
90.0
  0
ARC
  5
A7
330
1F
100
AcDbEntity
  8
0
100
AcDbCircle
 10
-247.4999999999999
 20
199.9999999999999
 30
0.0000000000045538
 40
5.0
210
9.096901282628588E-15
220
1.119104808822168E-14
230
-1.0
100
AcDbArc
 50
90.0
 51
180.0
  0
LINE
  5
A8
330
1F
100
AcDbEntity
  8
0
100
AcDbLine
 10
252.4999999999999
 20
199.9999999999999
 30
-0.0000000000000144
 11
250.4926675332549
 21
199.9999999999999
 31
-115.0
  0
SPLINE
  5
A9
330
1F
100
AcDbEntity
  8
0
100
AcDbSpline
210
0.0
220
0.0
230
1.0
 70
    24
 71
     2
 72
     6
 73
     3
 74
     0
 42
0.000000001
 43
0.0000000001
 40
-0.1762864098361952
 40
-0.1762864098361952
 40
-0.1762864098361952
 40
-0.136231580775298
 40
-0.136231580775298
 40
-0.136231580775298
 10
249.7944649361262
 20
-234.9867063209886
 30
-154.9999999999999
 10
250.1435662346906
 20
-233.9990520000014
 30
-134.9999999999999
 10
250.492667533255
 20
-233.0113976790141
 30
-115.0
  0
SPLINE
  5
AA
330
1F
100
AcDbEntity
  8
0
100
AcDbSpline
210
0.0
220
0.0
230
1.0
 70
    24
 71
     2
 72
     6
 73
     3
 74
     0
 42
0.000000001
 43
0.0000000001
 40
0.0
 40
0.0
 40
0.0
 40
0.4949999999999998
 40
0.4949999999999998
 40
0.4949999999999998
 10
252.4999999999999
 20
199.9999999999999
 30
-0.0000000000000144
 10
252.4999999999999
 20
-47.49999999999999
 30
0.0000000000000017
 10
252.5
 20
-294.9999999999999
 30
0.0000000000000179
  0
SPLINE
  5
AB
330
1F
100
AcDbEntity
  8
0
100
AcDbSpline
210
0.0
220
0.0
230
1.0
 70
    24
 71
     2
 72
     6
 73
     3
 74
     0
 42
0.000000001
 43
0.0000000001
 40
0.0
 40
0.0
 40
0.0
 40
0.1550236108468056
 40
0.1550236108468056
 40
0.1550236108468056
 10
252.5
 20
-294.9999999999999
 30
0.0000000000000179
 10
251.1472324680631
 20
-294.9999999999999
 30
-77.49999999999996
 10
249.7944649361263
 20
-294.9999999999999
 30
-154.9999999999999
  0
SPLINE
  5
AC
330
1F
100
AcDbEntity
  8
0
100
AcDbSpline
210
0.0
220
0.0
230
1.0
 70
    24
 71
     2
 72
     6
 73
     3
 74
     0
 42
0.000000001
 43
0.0000000001
 40
0.0000000000000001
 40
0.0000000000000001
 40
0.0000000000000001
 40
0.0600132936790114
 40
0.0600132936790114
 40
0.0600132936790114
 10
249.7944649361263
 20
-294.9999999999999
 30
-154.9999999999999
 10
249.7944649361262
 20
-264.9933531604942
 30
-154.9999999999999
 10
249.7944649361262
 20
-234.9867063209886
 30
-154.9999999999999
  0
ARC
  5
AD
330
1F
100
AcDbEntity
  8
0
100
AcDbCircle
 10
-247.5
 20
-294.9999999999999
 30
-0.000000000004962
 40
5.000000000000057
210
-7.105427357601002E-15
220
1.067813916262944E-14
230
-1.0
100
AcDbArc
 50
180.0
 51
270.0
  0
LINE
  5
AE
330
1F
100
AcDbEntity
  8
0
100
AcDbLine
 10
247.5
 20
-299.9999999999999
 30
0.0000000000000123
 11
247.5
 21
-297.2944649361262
 31
-155.0
  0
ARC
  5
AF
330
1F
100
AcDbEntity
  8
0
100
AcDbCircle
 10
247.5
 20
-294.9999999999999
 30
-155.0
 40
2.294464936126303
100
AcDbArc
 50
270.0
 51
359.9999999999986
  0
SPLINE
  5
B0
330
1F
100
AcDbEntity
  8
0
100
AcDbSpline
210
0.0
220
0.0
230
1.0
 70
    24
 71
     2
 72
     6
 73
     3
 74
     0
 42
0.000000001
 43
0.0000000001
 40
0.0
 40
0.0
 40
0.0
 40
0.495
 40
0.495
 40
0.495
 10
-247.5
 20
-297.2944649361263
 30
-155.0
 10
0.0
 20
-297.2944649361262
 30
-155.0
 10
247.5
 20
-297.2944649361262
 30
-155.0
  0
SPLINE
  5
B1
330
1F
100
AcDbEntity
  8
0
100
AcDbSpline
210
0.0
220
0.0
230
1.0
 70
    24
 71
     2
 72
     6
 73
     3
 74
     0
 42
0.000000001
 43
0.0000000001
 40
-0.4972944649361262
 40
-0.4972944649361262
 40
-0.4972944649361262
 40
0.0022944649361263
 40
0.0022944649361263
 40
0.0022944649361263
 10
249.7944649361262
 20
-234.9867063209886
 30
-154.9999999999999
 10
-0.0000000000000142
 20
-234.9867063209886
 30
-154.9999999999999
 10
-249.7944649361263
 20
-234.9867063209886
 30
-154.9999999999999
  0
SPLINE
  5
B2
330
1F
100
AcDbEntity
  8
0
100
AcDbSpline
210
0.0
220
0.0
230
1.0
 70
    24
 71
     2
 72
     6
 73
     3
 74
     0
 42
0.000000001
 43
0.0000000001
 40
-0.4949999999999999
 40
-0.4949999999999999
 40
-0.4949999999999999
 40
0.0
 40
0.0
 40
0.0
 10
-247.5
 20
-300.0000000000001
 30
0.0000000000000126
 10
0.0
 20
-300.0
 30
0.0000000000000125
 10
247.5
 20
-299.9999999999999
 30
0.0000000000000123
  0
SPLINE
  5
B3
330
1F
100
AcDbEntity
  8
0
100
AcDbSpline
210
2.989427891062336E-8
220
0.9987828992087737
230
-0.04932261396271963
 70
     8
 71
     3
 72
    29
 73
    25
 74
     0
 42
0.000000001
 43
0.0000000001
 40
-0.1959590364620953
 40
-0.1959590364620953
 40
-0.1959590364620953
 40
-0.1959590364620953
 40
-0.0979795182310478
 40
-0.0979795182310478
 40
-0.0489897591155241
 40
-0.0489897591155241
 40
-0.0428660392260836
 40
-0.0413351092537235
 40
-0.0413351092537235
 40
-0.0398041792813633
 40
-0.0398041792813633
 40
-0.036742319336643
 40
-0.036742319336643
 40
-0.0306185994472025
 40
-0.0306185994472025
 40
-0.024494879557762
 40
-0.024494879557762
 40
-0.0183711596683215
 40
-0.0183711596683215
 40
-0.012247439778881
 40
-0.012247439778881
 40
-0.0061237198894405
 40
-0.0061237198894405
 40
0.0
 40
0.0
 40
0.0
 40
0.0
 10
-0.0000000000000001
 20
-233.543083177663
 30
-125.7666313476444
 10
-32.65459411475638
 20
-233.543082200288
 30
-125.7666313476444
 10
-65.30853596203964
 20
-233.5237894939821
 30
-125.3759738495187
 10
-114.2832259119309
 20
-233.4813651697528
 30
-124.5169109961243
 10
-130.6075109206703
 20
-233.4650321955076
 30
-124.1861781728614
 10
-148.9709898723696
 20
-233.4457000266886
 30
-123.794712897468
 10
-151.521455821677
 20
-233.4429981476927
 30
-123.7400013954672
 10
-154.0719041053088
 20
-233.4402789953901
 30
-123.6849401090063
 10
-155.0920820811655
 20
-233.4391900265821
 30
-123.6628891097119
 10
-155.6021075670094
 20
-233.438583450527
 30
-123.6506062541337
 10
-157.1312823795072
 20
-233.4358821036034
 30
-123.595904907596
 10
-158.1498421585407
 20
-233.4332108794505
 30
-123.5418132376603
 10
-161.2032888362791
 20
-233.4230141368242
 30
-123.3353310570964
 10
-163.2359786100445
 20
-233.4133402933577
 30
-123.1394369654834
 10
-167.2963363320972
 20
-233.3890823198078
 30
-122.6482154785628
 10
-169.3239901073319
 20
-233.3744843314668
 30
-122.3526074535373
 10
-173.3741428328429
 20
-233.340248022715
 30
-121.6593246793764
 10
-175.3886649233822
 20
-233.3206795902801
 30
-121.2630651568705
 10
-179.3813746001743
 20
-233.2762796615993
 30
-120.3639690512406
 10
-181.3616307159404
 20
-233.2514498656794
 30
-119.8611669009744
 10
-185.2840325641117
 20
-233.1955646935892
 30
-118.7294945815014
 10
-187.2263664483035
 20
-233.1645400532432
 30
-118.1012468128303
 10
-191.06280427161
 20
-233.0946120957422
 30
-116.6852080462361
 10
-192.9573189635317
 20
-233.0557758777435
 30
-115.8987758064275
 10
-194.8180190089239
 20
-233.0113918301203
 30
-115.0
  0
SPLINE
  5
B4
330
1F
100
AcDbEntity
  8
0
100
AcDbSpline
210
-3.300246038924772E-8
220
0.9987828992002911
230
-0.04932261413449561
 70
     8
 71
     3
 72
    30
 73
    26
 74
     0
 42
0.000000001
 43
0.0000000001
 40
-0.3922371727214476
 40
-0.3922371727214476
 40
-0.3922371727214476
 40
-0.3922371727214476
 40
-0.386103480963343
 40
-0.386103480963343
 40
-0.3799697892052383
 40
-0.3799697892052383
 40
-0.3738360974471335
 40
-0.3738360974471335
 40
-0.3677024056890289
 40
-0.3677024056890289
 40
-0.3615687139309242
 40
-0.3615687139309242
 40
-0.3554350221728195
 40
-0.3554350221728195
 40
-0.3523681762937672
 40
-0.3523681762937672
 40
-0.3493013304147148
 40
-0.3493013304147148
 40
-0.34316763865661
 40
-0.34316763865661
 40
-0.2940981045917718
 40
-0.2940981045917718
 40
-0.2450285705269335
 40
-0.2450285705269335
 40
-0.1959590364620953
 40
-0.1959590364620953
 40
-0.1959590364620953
 40
-0.1959590364620953
 10
194.8180297240189
 20
-233.0113912220299
 30
-115.0000000006847
 10
192.9505999470945
 20
-233.0549907170498
 30
-115.8828884925878
 10
191.056813082219
 20
-233.0930261323646
 30
-116.6531043570017
 10
187.2328140595914
 20
-233.1614546495259
 30
-118.0387792194609
 10
185.3022624956504
 20
-233.1917765412793
 30
-118.6527962129471
 10
181.4124547840266
 20
-233.2463978769313
 30
-119.7588756161743
 10
179.4530464235092
 20
-233.2706653853778
 30
-120.2502913329328
 10
175.5099577721788
 20
-233.3141079600375
 30
-121.1300007988047
 10
173.5261872607058
 20
-233.3332640972452
 30
-121.5179112355128
 10
169.536577952444
 20
-233.3669462715082
 30
-122.1999725695512
 10
167.5306958839485
 20
-233.3814632298185
 30
-122.4939396222733
 10
163.4967643408619
 20
-233.4058462499659
 30
-122.9876930627953
 10
161.4687776108952
 20
-233.4157254761197
 30
-123.1877460280382
 10
158.4070899772014
 20
-233.4264095184309
 30
-123.4040958282025
 10
157.3857011443516
 20
-233.4292620554032
 30
-123.4618590163244
 10
155.3427311041176
 20
-233.4332841511358
 30
-123.5433050849108
 10
154.3207894720533
 20
-233.4342035046467
 30
-123.5619213090212
 10
151.2552511419471
 20
-233.4376467040194
 30
-123.631644042537
 10
149.2115541912058
 20
-233.4399308599065
 30
-123.6778968300709
 10
130.8182293150354
 20
-233.4603631743911
 30
-124.0916388758112
 10
114.4682405095911
 20
-233.4776485200963
 30
-124.4416561733583
 10
81.76633407427967
 20
-233.5076076660867
 30
-125.0483069758655
 10
65.41419242453446
 20
-233.5202676623351
 30
-125.3046609489423
 10
32.70800105920555
 20
-233.5380143071629
 30
-125.6640086092072
 10
16.35388399753382
 20
-233.5430826372813
 30
-125.7666313475297
 10
-0.0000000000000001
 20
-233.543083177663
 30
-125.7666313476444
  0
ARC
  5
B5
330
1F
100
AcDbEntity
  8
0
100
AcDbCircle
 10
38.35820831858577
 20
-117.5823420266135
 30
-30.00000000000001
 40
60.65257791397696
210
1.0
220
-6.101558307238254E-17
230
5.847080517708204E-17
100
AcDbArc
 50
269.9999999999997
 51
2.440160693221513
  0
ARC
  5
B6
330
1F
100
AcDbEntity
  8
0
100
AcDbCircle
 10
-38.35820831858581
 20
-117.5823420266135
 30
-30.0
 40
60.6525779139769
210
-1.0
220
0.0
230
0.0
100
AcDbArc
 50
177.5598393067784
 51
270.0000000000004
  0
LINE
  5
B7
330
1F
100
AcDbEntity
  8
0
100
AcDbLine
 10
30.0
 20
38.35820831858538
 30
-178.2349199405904
 11
-30.0
 21
38.35820831858538
 31
-178.2349199405904
  0
SPLINE
  5
B8
330
1F
100
AcDbEntity
  8
0
100
AcDbSpline
210
-1.0
220
-8.832216602240815E-16
230
-3.513117272133515E-16
 70
     8
 71
     3
 72
    30
 73
    26
 74
     0
 42
0.000000001
 43
0.0000000001
 40
0.0014844495257255
 40
0.0014844495257255
 40
0.0014844495257255
 40
0.0014844495257255
 40
0.0103342574615158
 40
0.0103342574615158
 40
0.019184065397306
 40
0.019184065397306
 40
0.0280338733330963
 40
0.0280338733330963
 40
0.0302463253170439
 40
0.0302463253170439
 40
0.0324587773009914
 40
0.0324587773009914
 40
0.0368836812688866
 40
0.0368836812688866
 40
0.0457334892046769
 40
0.0457334892046769
 40
0.0545832971404672
 40
0.0545832971404672
 40
0.0567957491244147
 40
0.0567957491244147
 40
0.0590082011083623
 40
0.0590082011083623
 40
0.0634331050762575
 40
0.0634331050762575
 40
0.0722829130120479
 40
0.0722829130120479
 40
0.0722829130120479
 40
0.0722829130120479
 10
30.00000000000001
 20
19.51166532672233
 30
-144.9569813042292
 10
30.0
 20
22.46019998431359
 30
-144.8633935716282
 10
30.0
 20
25.4112253967627
 30
-144.7212098726995
 10
30.0
 20
31.27034885418398
 30
-144.2260341110184
 10
30.0
 20
34.17929027552976
 30
-143.8699910713515
 10
29.99999999999999
 20
39.93299848072488
 30
-142.8203702317858
 10
29.99999999999999
 20
42.77766236623644
 30
-142.1262512248443
 10
29.99999999999999
 20
46.28569462929303
 30
-141.007204873545
 10
29.99999999999998
 20
46.98493463757892
 30
-140.7709489849769
 10
29.99999999999998
 20
48.37856095084578
 30
-140.2729085310118
 10
29.99999999999998
 20
49.07439377750082
 30
-140.0105206607153
 10
29.99999999999998
 20
51.13896570672203
 30
-139.1904913315599
 10
29.99999999999998
 20
52.48727420988111
 30
-138.599375976146
 10
29.99999999999997
 20
56.45060467620974
 30
-136.6968942531875
 10
29.99999999999997
 20
58.98441226039774
 30
-135.2569946836251
 10
29.99999999999996
 20
63.84233255580299
 30
-132.0453238512411
 10
29.99999999999996
 20
66.16649584421859
 30
-130.2736326339646
 10
29.99999999999996
 20
68.93768663005315
 30
-127.8469236366912
 10
29.99999999999996
 20
69.4851929298348
 30
-127.3509277240596
 10
29.99999999999995
 20
70.56653668469347
 30
-126.337303025409
 10
29.99999999999995
 20
71.0996308287931
 30
-125.8203062111636
 10
29.99999999999995
 20
72.66740166738437
 30
-124.2475782630537
 10
29.99999999999995
 20
73.67407656602482
 30
-123.1669179324281
 10
29.99999999999995
 20
76.58031443869388
 30
-119.8298575515387
 10
29.99999999999995
 20
78.36657846965859
 30
-117.4787857811724
 10
29.99999999999994
 20
80.0
 30
-115.0
  0
SPLINE
  5
B9
330
1F
100
AcDbEntity
  8
0
100
AcDbSpline
210
-1.0
220
-1.224213523100083E-14
230
2.536702723378987E-15
 70
     8
 71
     3
 72
    12
 73
     8
 74
     0
 42
0.000000001
 43
0.0000000001
 40
0.0163996709026204
 40
0.0163996709026204
 40
0.0163996709026204
 40
0.0163996709026204
 40
0.0248676318315798
 40
0.0248676318315798
 40
0.0333355927605391
 40
0.0333355927605391
 40
0.0502715146184578
 40
0.0502715146184578
 40
0.0502715146184578
 40
0.0502715146184578
 10
30.0
 20
13.19652431979095
 30
-178.2349199405894
 10
30.0
 20
13.8159059483954
 30
-175.4801796335659
 10
30.0
 20
14.40136253209333
 30
-172.7162906640623
 10
30.0
 20
15.52406554520551
 30
-167.1813923757251
 10
30.0
 20
16.06122499207112
 30
-164.4098655882693
 10
30.00000000000001
 20
17.61906394878367
 30
-156.0862441489356
 10
30.00000000000001
 20
18.58705865221912
 30
-150.5252693169511
 10
30.00000000000001
 20
19.51166532672233
 30
-144.9569813042292
  0
SPLINE
  5
BA
330
1F
100
AcDbEntity
  8
0
100
AcDbSpline
210
0.0
220
0.0
230
1.0
 70
    24
 71
     2
 72
     6
 73
     3
 74
     0
 42
0.000000001
 43
0.0000000001
 40
0.0
 40
0.0
 40
0.0
 40
0.0251616839987944
 40
0.0251616839987944
 40
0.0251616839987944
 10
30.0
 20
38.35820831858538
 30
-178.2349199405904
 10
30.0
 20
25.77736631918816
 30
-178.2349199405899
 10
30.0
 20
13.19652431979095
 30
-178.2349199405894
  0
SPLINE
  5
BB
330
1F
100
AcDbEntity
  8
0
100
AcDbSpline
210
0.0
220
0.0
230
1.0
 70
    24
 71
     2
 72
     6
 73
     3
 74
     0
 42
0.000000001
 43
0.0000000001
 40
0.0
 40
0.0
 40
0.0
 40
0.0251616839987917
 40
0.0251616839987917
 40
0.0251616839987917
 10
-30.0
 20
38.35820831858538
 30
-178.2349199405904
 10
-29.99999999999996
 20
25.77736631918951
 30
-178.2349199405873
 10
-29.99999999999992
 20
13.19652431979364
 30
-178.2349199405842
  0
SPLINE
  5
BC
330
1F
100
AcDbEntity
  8
0
100
AcDbSpline
210
-1.0
220
-6.558343891098117E-15
230
-1.211874881828732E-15
 70
     8
 71
     3
 72
    12
 73
     8
 74
     0
 42
0.000000001
 43
0.0000000001
 40
-0.0502569081751884
 40
-0.0502569081751884
 40
-0.0502569081751884
 40
-0.0502569081751884
 40
-0.0333282895389106
 40
-0.0333282895389106
 40
-0.0248639802207717
 40
-0.0248639802207717
 40
-0.0163996709026328
 40
-0.0163996709026328
 40
-0.0163996709026328
 40
-0.0163996709026328
 10
-30.0
 20
19.50927293596388
 30
-144.9713884539976
 10
-29.99999999999999
 20
18.58498749951234
 30
-150.5372622132909
 10
-29.99999999999998
 20
17.61733496504933
 30
-156.0958263198156
 10
-29.99999999999996
 20
16.06007407805869
 30
-164.4158425959324
 10
-29.99999999999995
 20
15.52311834130304
 30
-167.1861695198039
 10
-29.99999999999994
 20
14.40085729017177
 30
-172.7186739030881
 10
-29.99999999999993
 20
13.8156388545042
 30
-175.4813675511235
 10
-29.99999999999992
 20
13.19652431979364
 30
-178.2349199405842
  0
SPLINE
  5
BD
330
1F
100
AcDbEntity
  8
0
100
AcDbSpline
210
-1.0
220
-1.433844020325415E-15
230
-8.992766710517939E-16
 70
     8
 71
     3
 72
    26
 73
    22
 74
     0
 42
0.000000001
 43
0.0000000001
 40
-0.0723911183670711
 40
-0.0723911183670711
 40
-0.0723911183670711
 40
-0.0723911183670711
 40
-0.0635274456779003
 40
-0.0635274456779003
 40
-0.0546637729887296
 40
-0.0546637729887296
 40
-0.0502319366441442
 40
-0.0502319366441442
 40
-0.0458001002995589
 40
-0.0458001002995589
 40
-0.0369364276103882
 40
-0.0369364276103882
 40
-0.0280727549212175
 40
-0.0280727549212175
 40
-0.0236409185766322
 40
-0.0236409185766322
 40
-0.0192090822320469
 40
-0.0192090822320469
 40
-0.0103454095428762
 40
-0.0103454095428762
 40
-0.0014817368537056
 40
-0.0014817368537056
 40
-0.0014817368537056
 40
-0.0014817368537056
 10
-30.00000000000012
 20
80.0
 30
-115.0
 10
-30.00000000000011
 20
78.36997871043434
 30
-117.4809497062277
 10
-30.00000000000011
 20
76.59359968574434
 30
-119.8264425335929
 10
-30.0000000000001
 20
72.75748213908652
 30
-124.2551735622546
 10
-30.0000000000001
 20
70.69778326613407
 30
-126.338448459472
 10
-30.00000000000009
 20
67.39106891343997
 30
-129.2623694850195
 10
-30.00000000000009
 20
66.25214370861843
 30
-130.2036807577954
 10
-30.00000000000008
 20
63.90066161104044
 30
-132.0156274330475
 10
-30.00000000000008
 20
62.70112004967549
 30
-132.8762695183159
 10
-30.00000000000007
 20
59.0325307702832
 30
-135.3249388656659
 10
-30.00000000000006
 20
56.49385106121192
 30
-136.7803427084784
 10
-30.00000000000006
 20
51.22956924296947
 30
-139.3351317384892
 10
-30.00000000000005
 20
48.50371428707915
 30
-140.4340353453687
 10
-30.00000000000004
 20
44.26760934884929
 30
-141.8017953860148
 10
-30.00000000000004
 20
42.8428368976805
 30
-142.2068557049906
 10
-30.00000000000004
 20
39.9822334955299
 30
-142.9168331486002
 10
-30.00000000000003
 20
38.54423150247847
 30
-143.2223716464804
 10
-30.00000000000002
 20
34.20934375345549
 30
-144.0048872645387
 10
-30.00000000000002
 20
31.29128827932563
 30
-144.3459153445252
 10
-30.00000000000001
 20
25.41889270019455
 30
-144.79495655816
 10
-30.00000000000001
 20
22.46316865214314
 30
-144.906612187578
 10
-30.0
 20
19.50927293596388
 30
-144.9713884539976
  0
ARC
  5
BE
330
1F
100
AcDbEntity
  8
0
100
AcDbCircle
 10
0.0
 20
130.0
 30
-115.0
 40
17.50000000000003
100
AcDbArc
 50
270.0
 51
90.0
  0
ARC
  5
BF
330
1F
100
AcDbEntity
  8
0
100
AcDbCircle
 10
0.0
 20
130.0
 30
-0.0000000000000329
 40
17.50000000000003
210
2.036069725517918E-16
220
-2.514929569437658E-16
230
-1.0
100
AcDbArc
 50
90.00000000000001
 51
270.0
  0
SPLINE
  5
C0
330
1F
100
AcDbEntity
  8
0
100
AcDbSpline
210
0.0
220
0.0
230
1.0
 70
     8
 71
     3
 72
    25
 73
    21
 74
     0
 42
0.000000001
 43
0.0000000001
 40
-1.566743655658345
 40
-1.566743655658345
 40
-1.566743655658345
 40
-1.566743655658345
 40
-1.481379504927693
 40
-1.310651203466391
 40
-1.22528705273574
 40
-1.22528705273574
 40
-1.22311171292111
 40
-1.220936373106481
 40
-1.218761033291851
 40
-1.216585693477222
 40
-1.216585693477222
 40
-1.109330997982198
 40
-1.002076302487175
 40
-0.8948216069921521
 40
-0.7875669114971288
 40
-0.7875669114971288
 40
-0.7853915807340066
 40
-0.7832162499708846
 40
-0.7810409192077625
 40
-0.7788655884446406
 40
-0.7788655884446406
 40
-0.7788655884446406
 40
-0.7788655884446406
 10
-217.4999999999999
 20
-259.9999999955608
 30
0.000000000000029
 10
-217.5
 20
-232.5451326637448
 30
0.0000000000000289
 10
-217.5
 20
-150.0792270887064
 30
0.0000000000000182
 10
-217.4999999999999
 20
-39.92076365215686
 30
0.0000000000000144
 10
-217.4999999999999
 20
42.54513550255439
 30
0.0000000000000179
 10
-217.5
 20
70.6996339675
 30
0.0000000000000036
 10
-217.2113585758104
 20
72.01169935147246
 30
0.0000000000000072
 10
-216.1362772886602
 20
73.60307870713652
 30
0.0000000000000107
 10
-214.5478997940612
 20
74.69806082877962
 30
0.0000000000000071
 10
-213.2170521415641
 20
75.00000000000007
 30
0.0000000000000071
 10
-177.145887010065
 20
74.99999999999999
 30
0.0000000000000106
 10
-106.3440776816477
 20
75.00000000000018
 30
0.000000000000014
 10
-0.0000047751172748
 20
74.99999999999984
 30
0.0000000000000103
 10
106.3440703464623
 20
75.00000000000011
 30
0.00000000000001
 10
177.1458840857487
 20
74.99999999999997
 30
0.0000000000000063
 10
213.2170492172477
 20
74.99999999999997
 30
0.0000000000000169
 10
214.5478967754131
 20
74.69806261471888
 30
0.0000000000000098
 10
216.1362777043989
 20
73.60307892519263
 30
0.0000000000000063
 10
217.2113603412066
 20
72.0116961788446
 30
-0.0000000000000008
 10
217.5
 20
70.69963112869064
 30
0.0000000000000063
 10
217.5
 20
69.99999999556107
 30
0.0000000000000116
  0
SPLINE
  5
C1
330
1F
100
AcDbEntity
  8
0
100
AcDbSpline
 70
     0
 71
     3
 72
    25
 73
    21
 74
     0
 42
0.000000001
 43
0.0000000001
 40
0.0
 40
0.0
 40
0.0
 40
0.0
 40
0.0018391125660819
 40
0.0036782251321638
 40
0.0055173376982458
 40
0.0073564502643277
 40
0.0073564502643277
 40
0.0980339056656789
 40
0.1887113610670298
 40
0.2793888164683809
 40
0.370066271869732
 40
0.370066271869732
 40
0.3719053920883242
 40
0.3737445123069164
 40
0.3755836325255086
 40
0.3774227527441009
 40
0.3774227527441009
 40
0.4495930566643802
 40
0.5939336645049387
 40
0.666103968425218
 40
0.666103968425218
 40
0.666103968425218
 40
0.666103968425218
 10
182.5
 20
65.00000073848443
 30
-100.8770215329517
 10
182.5
 20
65.61682551730844
 30
-100.8770215329516
 10
182.2601835351244
 20
66.91196696374088
 30
-100.8989966715184
 10
181.1141959216049
 20
68.66603516655482
 30
-101.0033941631289
 10
179.361983031339
 20
69.77381926893223
 30
-101.161608080361
 10
178.0995191234446
 20
70.00000000000001
 30
-101.2744357542969
 10
147.9407425570014
 20
69.99999999999997
 30
-103.9548767906603
 10
88.78606353261874
 20
69.99999999999983
 30
-107.8898803831092
 10
0.0000040581718214
 20
70.00000000000024
 30
-109.8551797400741
 10
-88.78605728802096
 20
69.9999999999998
 30
-107.8898807149084
 10
-147.9407400580494
 20
70.0
 30
-103.9548770127614
 10
-178.0995215883218
 20
70.00000000000003
 30
-101.2744355352245
 10
-179.3621317708634
 20
69.77454036746805
 30
-101.1615964196056
 10
-181.1141474443276
 20
68.66601938395911
 30
-101.0033981003435
 10
-182.2597160033521
 20
66.91192712537477
 30
-100.8990394531929
 10
-182.5000000000001
 20
65.61682806325518
 30
-100.8770215329517
 10
-182.4999999999999
 20
40.79461111016583
 30
-100.8770215329516
 10
-182.5000000000001
 20
-31.73422613709927
 30
-100.8770215329517
 10
-182.4999999999999
 20
-128.2657817504963
 30
-100.8770215329519
 10
-182.5
 20
-200.7946135456104
 30
-100.8770215329516
 10
-182.5
 20
-225.0000007384843
 30
-100.8770215329517
  0
SPLINE
  5
C2
330
1F
100
AcDbEntity
  8
0
100
AcDbSpline
 70
     0
 71
     3
 72
    38
 73
    34
 74
     0
 42
0.000000001
 43
0.0000000001
 40
-0.2051350729748896
 40
-0.2051350729748896
 40
-0.2051350729748896
 40
-0.2051350729748896
 40
-0.198725323581353
 40
-0.198725323581353
 40
-0.1923155741878164
 40
-0.1923155741878164
 40
-0.1859058279487689
 40
-0.1859058279487689
 40
-0.1794960817097215
 40
-0.1794960817097215
 40
-0.1730863354737053
 40
-0.1730863354737053
 40
-0.166676589237689
 40
-0.166676589237689
 40
-0.1602668422582148
 40
-0.1602668422582148
 40
-0.1538570952787405
 40
-0.1538570952787405
 40
-0.1474473468876564
 40
-0.1474473468876564
 40
-0.1410375984965723
 40
-0.1410375984965723
 40
-0.1346278535141525
 40
-0.1346278535141525
 40
-0.1282181085317328
 40
-0.1282181085317328
 40
-0.1218083650011385
 40
-0.1218083650011385
 40
-0.1153986214705443
 40
-0.1153986214705443
 40
-0.1089888722354855
 40
-0.1089888722354855
 40
-0.1025791230004266
 40
-0.1025791230004266
 40
-0.1025791230004266
 40
-0.1025791230004266
 10
0.0000000000000165
 20
32.80947255979861
 30
-109.2000947368313
 10
2.147413768769603
 20
32.80947255979861
 30
-109.2000947368311
 10
4.294760808374332
 20
32.59797322149868
 30
-109.1966007332084
 10
8.507040627329076
 20
31.7600864028369
 30
-109.1831540027487
 10
10.57185387604897
 20
31.13372166530836
 30
-109.1732046891499
 10
14.53968197556016
 20
29.49017400118658
 30
-109.1483569258913
 10
16.44259314660584
 20
28.47303519419094
 30
-109.1334671998235
 10
20.01349905297102
 20
26.08701704318018
 30
-109.1010023024975
 10
21.68140226887347
 20
24.71819880188714
 30
-109.0834385853434
 10
24.71819883523187
 20
21.68140223075776
 30
-109.0482976396874
 10
26.08701703401148
 20
20.013499068435
 30
-109.030733863934
 10
28.47303521979158
 20
16.4425931065499
 30
-108.9982664495321
 10
29.49017399725843
 20
14.53968198406613
 30
-108.9833762233977
 10
31.1337213557519
 20
10.57185462435293
 30
-108.9585256313118
 10
31.76008415746681
 20
8.507048943363948
 30
-108.9485762084915
 10
32.59797201023657
 20
4.294769869736633
 30
-108.9351262182445
 10
32.8094725587974
 20
2.147413208025705
 30
-108.9316325954324
 10
32.80947256079989
 20
-2.147413650352292
 30
-108.931632409794
 10
32.59797321000273
 20
-4.294760909711683
 30
-108.9351267511288
 10
31.76008636368893
 20
-8.507040780592522
 30
-108.9485756181289
 10
31.13372165380926
 20
-10.57185390108156
 30
-108.958525859767
 10
29.4901740574831
 20
-14.53968184237847
 30
-108.9833759892342
 10
28.4730353256648
 20
-16.44259290740922
 30
-108.998266630598
 10
26.08701731194191
 20
-20.01349869317664
 30
-109.0307336755579
 10
24.7181988944832
 20
-21.68140217182393
 30
-109.0482975965584
 10
21.68140254941118
 20
-24.718198521032
 30
-109.0834386251363
 10
20.01349972456025
 20
-26.08701649857839
 30
-109.1010019672892
 10
16.44259450010071
 20
-28.47303438566624
 30
-109.1334675225489
 10
14.53968118552484
 20
-29.49017432747903
 30
-109.1483568216004
 10
10.57185390173182
 20
-31.13372165562487
 30
-109.1732047994682
 10
8.507040845145625
 20
-31.76008634854804
 30
-109.1831534936004
 10
4.294760912773831
 20
-32.5979732116939
 30
-109.1966012481812
 10
2.147413716524578
 20
-32.80947255979864
 30
-109.2000947368311
 10
0.0000000000000289
 20
-32.80947255979864
 30
-109.2000947368312
  0
ARC
  5
C3
330
1F
100
AcDbEntity
  8
0
100
AcDbCircle
 10
0.0
 20
-0.0000000000000071
 30
-115.0
 40
32.80947255979862
100
AcDbArc
 50
270.0
 51
90.0
  0
ARC
  5
C4
330
1F
100
AcDbEntity
  8
0
100
AcDbCircle
 10
0.0
 20
0.0
 30
111.9658131632384
 40
32.80947255979862
210
0.0
220
-6.123233995736757E-17
230
-1.0
100
AcDbArc
 50
270.0
 51
89.99999999999999
  0
LINE
  5
C5
330
1F
100
AcDbEntity
  8
0
100
AcDbLine
 10
-32.80947255979862
 20
-0.0000000000000067
 30
-108.9316325021198
 11
-32.80947255979862
 21
-0.000000000000007
 31
-115.0
  0
SPLINE
  5
C6
330
1F
100
AcDbEntity
  8
0
100
AcDbSpline
210
0.0
220
0.0
230
1.0
 70
    24
 71
     2
 72
     6
 73
     3
 74
     0
 42
0.000000001
 43
0.0000000001
 40
22.10105149894839
 40
22.10105149894839
 40
22.10105149894839
 40
137.3970207074342
 40
137.3970207074342
 40
137.3970207074342
 10
217.5
 20
69.99999999556087
 30
0.0000000000000213
 10
200.0
 20
67.50000036702258
 30
-50.43851076647587
 10
182.5
 20
65.00000073848429
 30
-100.8770215329518
  0
SPLINE
  5
C7
330
1F
100
AcDbEntity
  8
0
100
AcDbSpline
210
0.0
220
0.0
230
1.0
 70
    24
 71
     2
 72
     6
 73
     3
 74
     0
 42
0.000000001
 43
0.0000000001
 40
22.10105149894839
 40
22.10105149894839
 40
22.10105149894839
 40
137.3970207074342
 40
137.3970207074342
 40
137.3970207074342
 10
217.4999999999998
 20
-12.4491312754335
 30
0.0000000000000249
 10
199.9999999999998
 20
-9.996304736334727
 30
-50.43851076647589
 10
182.4999999999998
 20
-7.543478197235949
 30
-100.8770215329518
  0
SPLINE
  5
C8
330
1F
100
AcDbEntity
  8
0
100
AcDbSpline
210
0.0
220
0.0
230
1.0
 70
    24
 71
     2
 72
     6
 73
     3
 74
     0
 42
0.000000001
 43
0.0000000001
 40
22.10105149894839
 40
22.10105149894839
 40
22.10105149894839
 40
137.3970207074342
 40
137.3970207074342
 40
137.3970207074342
 10
217.4999999999998
 20
-177.5508751302247
 30
0.0000000000000391
 10
199.9999999999999
 20
-165.0036957342856
 30
-50.43851076647591
 10
182.4999999999999
 20
-152.4565163383465
 30
-100.8770215329519
  0
SPLINE
  5
C9
330
1F
100
AcDbEntity
  8
0
100
AcDbSpline
210
0.0
220
0.0
230
1.0
 70
    24
 71
     2
 72
     6
 73
     3
 74
     0
 42
0.000000001
 43
0.0000000001
 40
22.10105149894839
 40
22.10105149894839
 40
22.10105149894839
 40
137.3970207074342
 40
137.3970207074342
 40
137.3970207074342
 10
217.5
 20
-259.9999999955609
 30
0.0000000000000391
 10
200.0000000000001
 20
-242.5000003266946
 30
-50.43851076647589
 10
182.5000000000001
 20
-225.0000006578284
 30
-100.8770215329518
  0
SPLINE
  5
CA
330
1F
100
AcDbEntity
  8
0
100
AcDbSpline
210
0.0
220
0.0
230
1.0
 70
    24
 71
     2
 72
     6
 73
     3
 74
     0
 42
0.000000001
 43
0.0000000001
 40
22.10105149894839
 40
22.10105149894839
 40
22.10105149894839
 40
137.3970207074342
 40
137.3970207074342
 40
137.3970207074342
 10
217.1043387173326
 20
-261.94891289809
 30
0.0000000000000426
 10
199.616598813338
 20
-244.4147069838495
 30
-50.45546404049556
 10
182.1288589093434
 20
-226.880501069609
 30
-100.9109280809912
  0
SPLINE
  5
CB
330
1F
100
AcDbEntity
  8
0
100
AcDbSpline
210
0.0
220
0.0
230
1.0
 70
    24
 71
     2
 72
     6
 73
     3
 74
     0
 42
0.000000001
 43
0.0000000001
 40
22.10105149894839
 40
22.10105149894839
 40
22.10105149894839
 40
137.3970207074342
 40
137.3970207074342
 40
137.3970207074342
 10
216.0507279207523
 20
-263.5203458347996
 30
0.0000000000000462
 10
198.5319004230034
 20
-246.0393850031231
 30
-50.50618568951446
 10
181.0130729252546
 20
-228.5584241714466
 30
-101.012371379029
  0
SPLINE
  5
CC
330
1F
100
AcDbEntity
  8
0
100
AcDbSpline
210
0.0
220
0.0
230
1.0
 70
    24
 71
     2
 72
     6
 73
     3
 74
     0
 42
0.000000001
 43
0.0000000001
 40
22.10105149894839
 40
22.10105149894839
 40
22.10105149894839
 40
137.3970207074342
 40
137.3970207074342
 40
137.3970207074342
 10
214.4799174633696
 20
-264.5910486013108
 30
0.0000000000000462
 10
196.9091996504208
 20
-247.1186001898302
 30
-50.58171990598333
 10
179.3384818374719
 20
-229.6461517783496
 30
-101.1634398119667
  0
SPLINE
  5
CD
330
1F
100
AcDbEntity
  8
0
100
AcDbSpline
210
0.0
220
0.0
230
1.0
 70
    24
 71
     2
 72
     6
 73
     3
 74
     0
 42
0.000000001
 43
0.0000000001
 40
22.10105149894839
 40
22.10105149894839
 40
22.10105149894839
 40
137.3970207074342
 40
137.3970207074342
 40
137.3970207074342
 10
212.4999999954272
 20
-265.0000000000001
 30
0.0000000000000497
 10
195.0000003191766
 20
-247.5000000000001
 30
-50.66385977248034
 10
177.5000006429261
 20
-230.0
 30
-101.3277195449607
  0
SPLINE
  5
CE
330
1F
100
AcDbEntity
  8
0
100
AcDbSpline
210
0.0
220
0.0
230
1.0
 70
    24
 71
     2
 72
     6
 73
     3
 74
     0
 42
0.000000001
 43
0.0000000001
 40
22.10105149894839
 40
22.10105149894839
 40
22.10105149894839
 40
137.3970207074342
 40
137.3970207074342
 40
137.3970207074342
 10
106.3205178626637
 20
-265.0
 30
0.0000000000000426
 10
97.54878447607982
 20
-247.5
 30
-53.6168398134497
 10
88.77705108949594
 20
-230.0000000000001
 30
-107.2336796268994
  0
SPLINE
  5
CF
330
1F
100
AcDbEntity
  8
0
100
AcDbSpline
210
0.0
220
0.0
230
1.0
 70
    24
 71
     2
 72
     6
 73
     3
 74
     0
 42
0.000000001
 43
0.0000000001
 40
22.10105149894839
 40
22.10105149894839
 40
22.10105149894839
 40
137.3970207074342
 40
137.3970207074342
 40
137.3970207074342
 10
0.0000044059425042
 20
-265.0000000000001
 30
0.0000000000000497
 10
0.0000003298641356
 20
-247.5
 30
-54.60004000485951
 10
-0.000003746214233
 20
-229.9999999999999
 30
-109.2000800097191
  0
SPLINE
  5
D0
330
1F
100
AcDbEntity
  8
0
100
AcDbSpline
210
0.0
220
0.0
230
1.0
 70
    24
 71
     2
 72
     6
 73
     3
 74
     0
 42
0.000000001
 43
0.0000000001
 40
22.1010514989484
 40
22.1010514989484
 40
22.1010514989484
 40
137.3970207074342
 40
137.3970207074342
 40
137.3970207074342
 10
-106.3205112610204
 20
-264.9999999999999
 30
0.0000000000000497
 10
-97.54878398533005
 20
-247.4999999999999
 30
-53.61683968891225
 10
-88.77705670963974
 20
-229.9999999999999
 30
-107.2336793778246
  0
SPLINE
  5
D1
330
1F
100
AcDbEntity
  8
0
100
AcDbSpline
210
0.0
220
0.0
230
1.0
 70
    24
 71
     2
 72
     6
 73
     3
 74
     0
 42
0.000000001
 43
0.0000000001
 40
22.1010514989484
 40
22.1010514989484
 40
22.1010514989484
 40
137.3970207074342
 40
137.3970207074342
 40
137.3970207074342
 10
-212.4999999954272
 20
-265.0000000000001
 30
0.0000000000000391
 10
-195.0000003585729
 20
-247.5
 30
-50.66385976897888
 10
-177.5000007217186
 20
-230.0
 30
-101.3277195379578
  0
SPLINE
  5
D2
330
1F
100
AcDbEntity
  8
0
100
AcDbSpline
210
0.0
220
0.0
230
1.0
 70
    24
 71
     2
 72
     6
 73
     3
 74
     0
 42
0.000000001
 43
0.0000000001
 40
22.1010514989484
 40
22.1010514989484
 40
22.1010514989484
 40
137.3970207074342
 40
137.3970207074342
 40
137.3970207074342
 10
-214.4799150407028
 20
-264.5910496794516
 30
0.0000000000000462
 10
-196.9091587883896
 20
-247.1183917237106
 30
-50.58172300631981
 10
-179.3384025360763
 20
-229.6457337679696
 30
-101.1634460126397
  0
SPLINE
  5
D3
330
1F
100
AcDbEntity
  8
0
100
AcDbSpline
210
0.0
220
0.0
230
1.0
 70
    24
 71
     2
 72
     6
 73
     3
 74
     0
 42
0.000000001
 43
0.0000000001
 40
22.1010514989484
 40
22.1010514989484
 40
22.1010514989484
 40
137.3970207074342
 40
137.3970207074342
 40
137.3970207074342
 10
-216.050727989036
 20
-263.5203457490551
 30
0.0000000000000426
 10
-198.5319431822583
 20
-246.0393334494352
 30
-50.5061817836997
 10
-181.0131583754806
 20
-228.5583211498153
 30
-101.0123635673994
  0
SPLINE
  5
D4
330
1F
100
AcDbEntity
  8
0
100
AcDbSpline
210
0.0
220
0.0
230
1.0
 70
    24
 71
     2
 72
     6
 73
     3
 74
     0
 42
0.000000001
 43
0.0000000001
 40
22.10105149894839
 40
22.10105149894839
 40
22.10105149894839
 40
137.3970207074342
 40
137.3970207074342
 40
137.3970207074342
 10
-217.1043398164368
 20
-261.9489103740309
 30
0.0000000000000497
 10
-199.6167397660967
 20
-244.4147183383163
 30
-50.45545123440588
 10
-182.1291397157566
 20
-226.8805263026018
 30
-100.9109024688118
  0
ARC
  5
D5
330
1F
100
AcDbEntity
  8
0
100
AcDbCircle
 10
0.0
 20
130.0
 30
-57.5
 40
17.50000000000003
100
AcDbArc
 50
90.0
 51
270.0
  0
LINE
  5
D6
330
1F
100
AcDbEntity
  8
0
100
AcDbLine
 10
-17.50000000000003
 20
130.0
 30
-115.0
 11
-17.50000000000003
 21
130.0
 31
-0.0000000000000036
  0
ARC
  5
D7
330
1F
100
AcDbEntity
  8
0
100
AcDbCircle
 10
0.0
 20
-0.0000000000000099
 30
-162.4308818220452
 40
34.20498207523856
100
AcDbArc
 50
270.0
 51
28.70965683609015
  0
LINE
  5
D8
330
1F
100
AcDbEntity
  8
0
100
AcDbLine
 10
32.62138378181864
 20
-0.000000000000011
 30
-179.9229
 11
35.78628231192668
 21
-0.0000000000000089
 31
-144.9642473858212
  0
SPLINE
  5
D9
330
1F
100
AcDbEntity
  8
0
100
AcDbSpline
 70
     0
 71
     3
 72
    44
 73
    40
 74
     0
 42
0.000000001
 43
0.0000000001
 40
747.2313142831255
 40
747.2313142831255
 40
747.2313142831255
 40
747.2313142831255
 40
753.8785009825702
 40
803.8647171196325
 40
853.8509332566947
 40
903.8371493937569
 40
903.8371493937569
 40
909.2798137711535
 40
914.7224781485497
 40
920.1651425259462
 40
925.6078069033424
 40
931.0504712807389
 40
936.4931356581353
 40
941.9358000355315
 40
947.3784644129281
 40
947.3784644129281
 40
963.5504755160953
 40
979.7224866192626
 40
995.8944977224297
 40
1012.066508825597
 40
1012.066508825597
 40
1064.072735056955
 40
1116.078961288314
 40
1168.085187519673
 40
1220.091413751031
 40
1220.091413751031
 40
1224.333365940636
 40
1228.575318130241
 40
1232.817270319845
 40
1237.05922250945
 40
1241.301174699055
 40
1245.54312688866
 40
1249.785079078265
 40
1254.027031267869
 40
1254.027031267869
 40
1292.466415873656
 40
1330.905800479443
 40
1369.34518508523
 40
1407.784569691016
 40
1407.784569691016
 40
1407.784569691016
 40
1407.784569691016
 10
29.99999946827901
 20
71.55158541502264
 30
-125.3668148437593
 10
31.5324793975849
 20
71.51809326827461
 30
-125.3707676700097
 10
44.58696980940709
 20
71.2123843658118
 30
-125.4066054159314
 10
69.12706738906994
 20
70.31779265939458
 30
-125.5066416627101
 10
103.5018860005159
 20
68.44967809625507
 30
-125.6893730844225
 10
126.3088883960687
 20
66.94287729665795
 30
-125.813331816821
 10
138.9271159234563
 20
66.08021317407744
 30
-125.8754768490016
 10
141.4391659208131
 20
65.68781940269847
 30
-125.8875403599716
 10
145.157132908034
 20
64.38541159410978
 30
-125.905163226065
 10
148.6538185139453
 20
62.36962555828399
 30
-125.9222635729712
 10
151.7569633639259
 20
59.69366136562991
 30
-125.9387912818657
 10
154.3135442589404
 20
56.46303243334133
 30
-125.9546962339228
 10
156.2088606054768
 20
52.82538173064464
 30
-125.969928310318
 10
157.3793674281304
 20
48.95248058458868
 30
-125.9844373922262
 10
157.6700047537708
 20
46.33058937271257
 30
-125.9935947046233
 10
157.7866574681852
 20
41.19008696172905
 30
-126.0112332198733
 10
157.9500242524061
 20
33.88763321403157
 30
-126.0352046131252
 10
158.1289209152429
 20
23.26165326326705
 30
-126.0625787005053
 10
158.2254489955799
 20
12.3800010471748
 30
-126.0800549895799
 10
158.2429447144801
 20
4.498762935564478
 30
-126.0842307862204
 10
158.2429447144801
 20
-14.46719777124052
 30
-126.0842307862204
 10
158.0805683345316
 20
-44.13623421363518
 30
-126.2798326323512
 10
157.4349087991993
 20
-90.24206854856902
 30
-127.0058021290219
 10
156.4468941872735
 20
-137.0892182099487
 30
-128.0100995422477
 10
155.5913236424347
 20
-168.1371671566413
 30
-128.7623572214895
 10
155.0819665795438
 20
-184.6992885117411
 30
-129.1637306580802
 10
154.777722904136
 20
-187.2288596822158
 30
-129.2242028912707
 10
153.6005412424706
 20
-190.9628499664948
 30
-129.3146269536248
 10
151.7097016586667
 20
-194.4660670351782
 30
-129.4046830286444
 10
149.163588877246
 20
-197.5701932927117
 30
-129.4942874164267
 10
146.0698713514562
 20
-200.1279575520234
 30
-129.5833564170686
 10
142.5749345230663
 20
-202.0302914363598
 30
-129.6718063306674
 10
138.8468701743149
 20
-203.2172435549057
 30
-129.7595534573205
 10
136.3199331487905
 20
-203.5258416852467
 30
-129.8175272171898
 10
123.7638006066446
 20
-203.927011638083
 30
-130.107725835141
 10
101.2035844807492
 20
-204.5892456194468
 30
-130.6066209766262
 10
67.45916128778758
 20
-205.350910616658
 30
-131.2212273052295
 10
33.74831233300547
 20
-205.8363595000309
 30
-131.6398160569759
 10
11.25850604614426
 20
-205.9508349104935
 30
-131.7466760447489
 10
0.0
 20
-205.9508349104935
 30
-131.7466760447489
  0
SPLINE
  5
DA
330
1F
100
AcDbEntity
  8
0
100
AcDbSpline
 70
     0
 71
     3
 72
    10
 73
     6
 74
     0
 42
0.000000001
 43
0.0000000001
 40
0.0000000000000787
 40
0.0000000000000787
 40
0.0000000000000787
 40
0.0000000000000787
 40
65.51868759336563
 40
65.51868759336563
 40
103.8710603097784
 40
103.8710603097784
 40
103.8710603097784
 40
103.8710603097784
 10
42.41462134237725
 20
80.0
 30
-115.0000000000001
 10
39.81672546059944
 20
77.45032034658387
 30
-118.7548898863283
 10
37.21025961346894
 20
74.5822811267467
 30
-122.2254788286766
 10
33.06678022483874
 20
69.60695106719254
 30
-127.2256259579372
 10
31.5344431896322
 20
67.67730624141902
 30
-128.9633325781193
 10
29.99996044321799
 20
65.6647109510274
 30
-130.5860502596304
  0
SPLINE
  5
DB
330
1F
100
AcDbEntity
  8
0
100
AcDbSpline
 70
     0
 71
     3
 72
    10
 73
     6
 74
     0
 42
0.000000001
 43
0.0000000001
 40
0.0000000000000442
 40
0.0000000000000442
 40
0.0000000000000442
 40
0.0000000000000442
 40
65.51868759336563
 40
65.51868759336563
 40
226.6297368653434
 40
226.6297368653434
 40
226.6297368653434
 40
226.6297368653434
 10
84.77218744499164
 20
80.0
 30
-114.9999999999999
 10
79.57776514867832
 20
76.98346105037069
 30
-118.8210660026331
 10
74.35321924603538
 20
73.70919269994052
 30
-122.3345903594802
 10
56.19496937613295
 20
61.62670841071922
 30
-133.3309763067236
 10
43.13506399770871
 20
51.71437236853089
 30
-139.1258711777452
 10
30.00003526913356
 20
41.05828111499561
 30
-142.4979695091517
  0
SPLINE
  5
DC
330
1F
100
AcDbEntity
  8
0
100
AcDbSpline
 70
     0
 71
     3
 72
    10
 73
     6
 74
     0
 42
0.000000001
 43
0.0000000001
 40
0.0000000000000097
 40
0.0000000000000097
 40
0.0000000000000097
 40
0.0000000000000097
 40
65.51868759336563
 40
65.51868759336563
 40
263.8444319368762
 40
263.8444319368762
 40
263.8444319368762
 40
263.8444319368762
 10
127.2425221467104
 20
80.00000000000001
 30
-115.0000000000001
 10
119.3749664406703
 20
76.29725105559639
 30
-118.9079644646053
 10
111.448984194321
 20
72.41638856631835
 30
-122.4778690034942
 10
79.33565460528715
 20
56.17924835979707
 30
-135.4127813417184
 10
54.75239731129884
 20
42.58879122269857
 30
-141.8566034818185
 10
29.99999998583611
 20
28.35954713282982
 30
-144.4720350263136
  0
SPLINE
  5
DD
330
1F
100
AcDbEntity
  8
0
100
AcDbSpline
 70
     0
 71
     3
 72
    10
 73
     6
 74
     0
 42
0.000000001
 43
0.0000000001
 40
-0.0000000000000249
 40
-0.0000000000000249
 40
-0.0000000000000249
 40
-0.0000000000000249
 40
65.51868759336563
 40
65.51868759336563
 40
277.4488532483956
 40
277.4488532483956
 40
277.4488532483956
 40
277.4488532483956
 10
169.9999999908506
 20
79.99999999999999
 30
-115.0
 10
159.3116739922907
 20
75.48046691307589
 30
-118.9964438552609
 10
148.5361036090611
 20
70.86388457469539
 30
-122.6237542910885
 10
102.5986187676469
 20
50.96540298293662
 30
-136.3678278873115
 10
66.7513538552182
 20
34.90392044855486
 30
-142.8726680954614
 10
30.64788220417076
 20
18.47685576509958
 30
-144.9589289080127
  0
SPLINE
  5
DE
330
1F
100
AcDbEntity
  8
0
100
AcDbSpline
 70
     0
 71
     3
 72
    10
 73
     6
 74
     0
 42
0.000000001
 43
0.0000000001
 40
-0.0000000000000191
 40
-0.0000000000000191
 40
-0.0000000000000191
 40
-0.0000000000000191
 40
65.51868759336563
 40
65.51868759336563
 40
277.4866182949829
 40
277.4866182949829
 40
277.4866182949829
 40
277.4866182949829
 10
174.7170553759823
 20
79.55103495035486
 30
-114.9999999999999
 10
163.7066860236081
 20
74.97470872135904
 30
-119.0053609121021
 10
152.6061679903854
 20
70.30950299554513
 30
-122.6384567816022
 10
105.2759918477054
 20
50.23175341644104
 30
-136.3987349613444
 10
68.33788943289125
 20
34.10497143489567
 30
-142.889841243996
 10
31.13504938847665
 20
17.64334427285806
 30
-144.9603269478634
  0
SPLINE
  5
DF
330
1F
100
AcDbEntity
  8
0
100
AcDbSpline
 70
     0
 71
     3
 72
    10
 73
     6
 74
     0
 42
0.000000001
 43
0.0000000001
 40
-0.0000000000000133
 40
-0.0000000000000133
 40
-0.0000000000000133
 40
-0.0000000000000133
 40
65.51868759336563
 40
65.51868759336563
 40
277.5184239876572
 40
277.5184239876572
 40
277.5184239876572
 40
277.5184239876572
 10
179.3749218779858
 20
78.17574984588528
 30
-115.0
 10
168.0444113431325
 20
73.61618486745087
 30
-119.0140450701173
 10
156.6209236866804
 20
68.97569676631235
 30
-122.6527752672991
 10
107.9073701889475
 20
49.02895045311409
 30
-136.4285916877682
 10
69.88638994394263
 20
33.07217597262561
 30
-142.906252001271
 10
31.59236417612345
 20
16.81050186562811
 30
-144.9615280640087
  0
SPLINE
  5
E0
330
1F
100
AcDbEntity
  8
0
100
AcDbSpline
 70
     0
 71
     3
 72
    10
 73
     6
 74
     0
 42
0.000000001
 43
0.0000000001
 40
-0.0000000000000075
 40
-0.0000000000000075
 40
-0.0000000000000075
 40
-0.0000000000000075
 40
65.51868759336563
 40
65.51868759336563
 40
277.543946015365
 40
277.543946015365
 40
277.543946015365
 40
277.543946015365
 10
183.7525351701406
 20
75.87756814619328
 30
-114.9999999999999
 10
172.1214012431089
 20
71.407759178388
 30
-119.0224716201476
 10
160.3945456569599
 20
66.86474744308347
 30
-122.6666690075871
 10
110.3817629973718
 20
47.35684843296068
 30
-136.4573004562572
 10
71.3431457590095
 20
31.80334981153477
 30
-142.9218422115214
 10
32.02342176975541
 20
15.97401879583621
 30
-144.9625265808619
  0
SPLINE
  5
E1
330
1F
100
AcDbEntity
  8
0
100
AcDbSpline
 70
     0
 71
     3
 72
    10
 73
     6
 74
     0
 42
0.000000001
 43
0.0000000001
 40
-0.0000000000000018
 40
-0.0000000000000018
 40
-0.0000000000000018
 40
-0.0000000000000018
 40
65.51868759336563
 40
65.51868759336563
 40
277.5629379996691
 40
277.5629379996691
 40
277.5629379996691
 40
277.5629379996691
 10
187.6283460317374
 20
72.72701029342882
 30
-115.0000000000001
 10
175.7336578692803
 20
68.41417525929228
 30
-119.0306158530346
 10
163.7405954612217
 20
64.0355991555674
 30
-122.6800972618748
 10
112.5873051232937
 20
45.24981272953161
 30
-136.4847675081387
 10
72.65337567194098
 20
30.31388463709103
 30
-142.9365585123356
 10
32.43054857116361
 20
15.13022605859175
 30
-144.9633191068146
  0
SPLINE
  5
E2
330
1F
100
AcDbEntity
  8
0
100
AcDbSpline
 70
     0
 71
     3
 72
    10
 73
     6
 74
     0
 42
0.000000001
 43
0.0000000001
 40
0.000000000000004
 40
0.000000000000004
 40
0.000000000000004
 40
0.000000000000004
 40
65.51868759336563
 40
65.51868759336563
 40
277.5752204492192
 40
277.5752204492192
 40
277.5752204492192
 40
277.5752204492192
 10
190.8058286166349
 20
68.86083516834195
 30
-115.0
 10
178.7002090229759
 20
64.76123256797987
 30
-119.0384530596192
 10
166.4936625960686
 20
60.60306930026145
 30
-122.6930192895703
 10
114.4246890969527
 20
42.77607140829468
 30
-136.510902418527
 10
73.76838304422068
 20
28.63620655503279
 30
-142.9503515756501
 10
32.81568243569663
 20
14.27566076669863
 30
-144.963904076705
  0
SPLINE
  5
E3
330
1F
100
AcDbEntity
  8
0
100
AcDbSpline
 70
     0
 71
     3
 72
    10
 73
     6
 74
     0
 42
0.000000001
 43
0.0000000001
 40
0.0000000000000098
 40
0.0000000000000098
 40
0.0000000000000098
 40
0.0000000000000098
 40
65.51868759336563
 40
65.51868759336563
 40
277.5809713330772
 40
277.5809713330772
 40
277.5809713330772
 40
277.5809713330772
 10
193.1373809716355
 20
64.46923512803687
 30
-115.0
 10
180.8851252239201
 20
60.62396176387716
 30
-119.045958530743
 10
168.5294981019499
 20
56.72700420052976
 30
-122.7053943500823
 10
115.8192428677076
 20
40.03100947125169
 30
-136.5356326021655
 10
74.65145853635448
 20
26.81622772631954
 30
-142.9631936448956
 10
33.1801003802549
 20
13.40667505483683
 30
-144.9642898540703
  0
SPLINE
  5
E4
330
1F
100
AcDbEntity
  8
0
100
AcDbSpline
 70
     0
 71
     3
 72
    10
 73
     6
 74
     0
 42
0.000000001
 43
0.0000000001
 40
0.0000000000000155
 40
0.0000000000000155
 40
0.0000000000000155
 40
0.0000000000000155
 40
65.51868759336563
 40
65.51868759336563
 40
277.5801373823141
 40
277.5801373823141
 40
277.5801373823141
 40
277.5801373823141
 10
194.5401354203958
 20
59.77347814721329
 30
-115.0000000000001
 10
182.2121192176873
 20
56.20600983080098
 30
-119.0531075572472
 10
169.7784031941603
 20
52.59340721092121
 30
-122.717181702819
 10
116.7292813951094
 20
37.12573263295297
 30
-136.5588740447159
 10
75.28241023641976
 20
24.90760621857071
 30
-142.9750426831414
 10
33.52512728118374
 20
12.51939246406602
 30
-144.9644778089158
  0
SPLINE
  5
E5
330
1F
100
AcDbEntity
  8
0
100
AcDbSpline
 70
     0
 71
     3
 72
    10
 73
     6
 74
     0
 42
0.000000001
 43
0.0000000001
 40
0.0000000000000213
 40
0.0000000000000213
 40
0.0000000000000213
 40
0.0000000000000213
 40
65.51868759336563
 40
65.51868759336563
 40
277.5735341559656
 40
277.5735341559656
 40
277.5735341559656
 40
277.5735341559656
 10
194.9999999999999
 20
54.99999999230712
 30
-115.0
 10
182.6682537950211
 20
51.71570219708832
 30
-119.0598754299729
 10
170.228603464906
 20
48.39247078328916
 30
-122.7283406071885
 10
117.1478502850695
 20
34.1734007381591
 30
-136.5805861616498
 10
75.65800079456415
 20
22.96440671330564
 30
-142.9859089330285
 10
33.85126644483899
 20
11.60869537845976
 30
-144.9644932707926
  0
SPLINE
  5
E6
330
1F
100
AcDbEntity
  8
0
100
AcDbSpline
 70
     0
 71
     3
 72
    10
 73
     6
 74
     0
 42
0.000000001
 43
0.0000000001
 40
0.0000000000000137
 40
0.0000000000000137
 40
0.0000000000000137
 40
0.0000000000000137
 40
65.51868759336563
 40
65.51868759336563
 40
277.5499944168915
 40
277.5499944168915
 40
277.5499944168915
 40
277.5499944168915
 10
195.0
 20
41.53029894044628
 30
-115.0
 10
182.7535408905508
 20
39.02259216776825
 30
-119.0774946550187
 10
170.3934390530957
 20
36.49209440609093
 30
-122.7573912786945
 10
117.633990006602
 20
25.69045400770947
 30
-136.6367907399922
 10
76.3409771424189
 20
17.23604123829529
 30
-143.0138220671146
 10
34.71422816817143
 20
8.695749093944533
 30
-144.9643678872967
  0
SPLINE
  5
E7
330
1F
100
AcDbEntity
  8
0
100
AcDbSpline
 70
     0
 71
     3
 72
    10
 73
     6
 74
     0
 42
0.000000001
 43
0.0000000001
 40
0.0000000000000061
 40
0.0000000000000061
 40
0.0000000000000061
 40
0.0000000000000061
 40
65.51868759336563
 40
65.51868759336563
 40
277.5340489850404
 40
277.5340489850404
 40
277.5340489850404
 40
277.5340489850404
 10
194.9999999999998
 20
28.56224138475316
 30
-115.0
 10
182.8163857703345
 20
26.79116969798937
 30
-119.0908823608552
 10
170.5147684207087
 20
25.0095727589824
 30
-122.7794649989328
 10
117.9907550578394
 20
17.42496619301753
 30
-136.6795909475474
 10
76.84055836169354
 20
11.5373334884059
 30
-143.0351560675791
 10
35.34382137128252
 20
5.610042192782648
 30
-144.9643382078535
  0
SPLINE
  5
E8
330
1F
100
AcDbEntity
  8
0
100
AcDbSpline
 70
     0
 71
     3
 72
    10
 73
     6
 74
     0
 42
0.000000001
 43
0.0000000001
 40
-0.0000000000000014
 40
-0.0000000000000014
 40
-0.0000000000000014
 40
-0.0000000000000014
 40
65.51868759336563
 40
65.51868759336563
 40
277.5225434269368
 40
277.5225434269368
 40
277.5225434269368
 40
277.5225434269368
 10
195.0
 20
15.15624033287611
 30
-115.0
 10
182.8518472893069
 20
14.18118638273383
 30
-119.099390337987
 10
170.5829204002295
 20
13.203402138581
 30
-122.7934929966566
 10
118.1898102368925
 20
9.051909080478092
 30
-136.7067206922083
 10
77.11615274798572
 20
5.856251323806693
 30
-143.0486351822204
 10
35.68781795801975
 20
2.650306323032751
 30
-144.9642872052074
  0
SPLINE
  5
E9
330
1F
100
AcDbEntity
  8
0
100
AcDbSpline
 70
     0
 71
     3
 72
    10
 73
     6
 74
     0
 42
0.000000001
 43
0.0000000001
 40
-0.000000000000009
 40
-0.000000000000009
 40
-0.000000000000009
 40
-0.000000000000009
 40
65.51868759336563
 40
65.51868759336563
 40
277.5180516768357
 40
277.5180516768357
 40
277.5180516768357
 40
277.5180516768357
 10
194.9999999999999
 20
0.0000000000000044
 30
-115.0
 10
182.8624995345889
 20
0.0000000000000044
 30
-119.1023703769188
 10
170.6032542885155
 20
0.0000000000000027
 30
-122.7984065006194
 10
118.2485879008425
 20
-0.0000000000000018
 30
-136.7161998415341
 10
77.19610692902633
 20
-0.0000000000000042
 30
-143.0533295147095
 10
35.78609859613805
 20
0.0000000009985151
 30
-144.9642579062885
  0
SPLINE
  5
EA
330
1F
100
AcDbEntity
  8
0
100
AcDbSpline
 70
     0
 71
     3
 72
    10
 73
     6
 74
     0
 42
0.000000001
 43
0.0000000001
 40
-0.0000000000000334
 40
-0.0000000000000334
 40
-0.0000000000000334
 40
-0.0000000000000334
 40
65.51868759336563
 40
65.51868759336563
 40
277.5738175470985
 40
277.5738175470985
 40
277.5738175470985
 40
277.5738175470985
 10
195.0
 20
-55.58035222351342
 30
-114.9999999999999
 10
182.7806057851667
 20
-51.93379891232077
 30
-119.3636442876331
 10
170.4452223645028
 20
-48.18335773673591
 30
-123.1573019500837
 10
117.7777134812538
 20
-32.16883703420937
 30
-136.6915213833226
 10
76.53324347588651
 20
-19.93439324289336
 30
-142.937165059652
 10
34.94814492619042
 20
-7.699949450625223
 30
-144.9636076592937
  0
SPLINE
  5
EB
330
1F
100
AcDbEntity
  8
0
100
AcDbSpline
 70
     0
 71
     3
 72
    10
 73
     6
 74
     0
 42
0.000000001
 43
0.0000000001
 40
-0.0000000000000578
 40
-0.0000000000000578
 40
-0.0000000000000578
 40
-0.0000000000000578
 40
65.51868759336563
 40
65.51868759336563
 40
277.7178132515687
 40
277.7178132515687
 40
277.7178132515687
 40
277.7178132515687
 10
195.0000000000001
 20
-113.1225846868014
 30
-115.0
 10
182.5545013977534
 20
-105.8230810957644
 30
-120.0471070751915
 10
170.0080695177921
 20
-98.14793082141249
 30
-124.0961315625096
 10
116.4716331237101
 20
-65.16060893755233
 30
-136.6261462381413
 10
74.68651813642377
 20
-39.95559677212834
 30
-142.6327252969009
 10
32.60498231131588
 20
-14.75058460587399
 30
-144.9627127313785
  0
SPLINE
  5
EC
330
1F
100
AcDbEntity
  8
0
100
AcDbSpline
 70
     0
 71
     3
 72
    10
 73
     6
 74
     0
 42
0.000000001
 43
0.0000000001
 40
-0.0000000000000822
 40
-0.0000000000000822
 40
-0.0000000000000822
 40
-0.0000000000000822
 40
65.51868759336563
 40
65.51868759336563
 40
277.8895588396926
 40
277.8895588396926
 40
277.8895588396926
 40
277.8895588396926
 10
195.0000000000001
 20
-171.6485114167282
 30
-115.0
 10
182.2079263293382
 20
-160.6889014905675
 30
-121.0022203227171
 10
169.3359594677941
 20
-148.9738722690202
 30
-125.4081102339464
 10
114.4597782905414
 20
-98.37199853880432
 30
-136.5318501250207
 10
71.82507199438083
 20
-59.70064990788409
 30
-142.2046084469422
 10
28.95572919580431
 20
-21.02930127630478
 30
-144.9623977572612
  0
SPLINE
  5
ED
330
1F
100
AcDbEntity
  8
0
100
AcDbSpline
 70
     0
 71
     3
 72
    10
 73
     6
 74
     0
 42
0.000000001
 43
0.0000000001
 40
-0.0000000000001066
 40
-0.0000000000001066
 40
-0.0000000000001066
 40
-0.0000000000001066
 40
65.51868759336563
 40
65.51868759336563
 40
278.0435083853113
 40
278.0435083853113
 40
278.0435083853113
 40
278.0435083853113
 10
195.0
 20
-229.9999999905335
 30
-115.0
 10
181.7597970360958
 20
-215.384841403605
 30
-122.0784456133333
 10
168.4634089322917
 20
-199.58633427745
 30
-126.8864528604434
 10
111.8392182586549
 20
-131.1092081038153
 30
-136.4221453489582
 10
68.06730948236151
 20
-78.76815884532556
 30
-141.7189263265748
 10
24.13038847923196
 20
-26.42710958637104
 30
-144.9627287111587
  0
SPLINE
  5
EE
330
1F
100
AcDbEntity
  8
0
100
AcDbSpline
 70
     0
 71
     3
 72
    10
 73
     6
 74
     0
 42
0.000000001
 43
0.0000000001
 40
2.483116353775087
 40
2.483116353775087
 40
2.483116353775087
 40
2.483116353775087
 40
65.51868759336563
 40
65.51868759336563
 40
278.0536960320966
 40
278.0536960320966
 40
278.0536960320966
 40
278.0536960320966
 10
193.0381839594441
 20
-233.0509469855142
 30
-115.8048313614908
 10
180.2917956904286
 20
-218.6124032869066
 30
-122.5301414757359
 10
167.4955284962801
 20
-203.0764815128295
 30
-127.0920343197827
 10
111.3723119746144
 20
-133.7519590931008
 30
-136.4129599620402
 10
67.61327622937654
 20
-80.2851195825592
 30
-141.678807925757
 10
23.69495498449435
 20
-26.8182800715688
 30
-144.9627352747762
  0
SPLINE
  5
EF
330
1F
100
AcDbEntity
  8
0
100
AcDbSpline
 70
     0
 71
     3
 72
    10
 73
     6
 74
     0
 42
0.000000001
 43
0.0000000001
 40
8.913901501760387
 40
8.913901501760387
 40
8.913901501760387
 40
8.913901501760387
 40
65.51868759336563
 40
65.51868759336563
 40
278.0617760564844
 40
278.0617760564844
 40
278.0617760564844
 40
278.0617760564844
 10
187.774104500704
 20
-233.1510569071429
 30
-117.8282401822815
 10
176.3794883570186
 20
-219.7276305583247
 30
-123.5316785232748
 10
164.9467436077356
 20
-205.4594739843206
 30
-127.4265704456731
 10
110.4315742007628
 20
-136.3471632979768
 30
-136.4037245711904
 10
66.92473472126031
 20
-81.76993883205925
 30
-141.6387070873635
 10
23.26431857289602
 20
-27.19271436570889
 30
-144.9626559041794
  0
SPLINE
  5
F0
330
1F
100
AcDbEntity
  8
0
100
AcDbSpline
 70
     0
 71
     3
 72
    10
 73
     6
 74
     0
 42
0.000000001
 43
0.0000000001
 40
14.64726270753636
 40
14.64726270753636
 40
14.64726270753636
 40
14.64726270753636
 40
65.51868759336563
 40
65.51868759336563
 40
278.0675543962267
 40
278.0675543962267
 40
278.0675543962267
 40
278.0675543962267
 10
182.0937692865067
 20
-233.2362558086865
 30
-119.5560260527793
 10
171.9572125333797
 20
-220.7996934813134
 30
-124.3994868788121
 10
161.7914512955199
 20
-207.7104248345847
 30
-127.7316608802867
 10
109.0210375402068
 20
-138.7846174892578
 30
-136.3944446083572
 10
66.00165859796724
 20
-83.16968307853024
 30
-141.5986536762755
 10
22.83438863379373
 20
-27.55474866738582
 30
-144.962478200921
  0
SPLINE
  5
F1
330
1F
100
AcDbEntity
  8
0
100
AcDbSpline
 70
     0
 71
     3
 72
    10
 73
     6
 74
     0
 42
0.000000001
 43
0.0000000001
 40
19.49996337901747
 40
19.49996337901747
 40
19.49996337901747
 40
19.49996337901747
 40
65.51868759336563
 40
65.51868759336563
 40
278.070838257116
 40
278.070838257116
 40
278.070838257116
 40
278.070838257116
 10
176.2208122681606
 20
-233.3059038634853
 30
-120.9640134720321
 10
167.1930488856952
 20
-221.7683733950322
 30
-125.1214016028235
 10
158.142601761573
 20
-209.7168708994438
 30
-128.0022739637043
 10
107.1783396402562
 20
-140.9552383327506
 30
-136.3851258962482
 10
64.86124616029963
 20
-84.43134370582767
 30
-141.5586778345677
 10
22.40191883385807
 20
-27.90744907850378
 30
-144.962189402593
  0
SPLINE
  5
F2
330
1F
100
AcDbEntity
  8
0
100
AcDbSpline
 70
     0
 71
     3
 72
    10
 73
     6
 74
     0
 42
0.000000001
 43
0.0000000001
 40
23.34448659551276
 40
23.34448659551276
 40
23.34448659551276
 40
23.34448659551276
 40
65.51868759336563
 40
65.51868759336563
 40
278.0713809884765
 40
278.0713809884765
 40
278.0713809884765
 40
278.0713809884765
 10
170.3760589928939
 20
-233.359579671326
 30
-122.0509714311139
 10
162.2691106164787
 20
-222.5790332858209
 30
-125.6951452096747
 10
154.1440556487291
 20
-211.3791277699422
 30
-128.2354976101174
 10
104.9731075440653
 20
-142.7636819109344
 30
-136.375772869212
 10
63.53682819293931
 20
-85.50864466567592
 30
-141.5188073028285
 10
21.96393841245801
 20
-28.25360742003222
 30
-144.9617737245912
  0
SPLINE
  5
F3
330
1F
100
AcDbEntity
  8
0
100
AcDbSpline
 70
     0
 71
     3
 72
    10
 73
     6
 74
     0
 42
0.000000001
 43
0.0000000001
 40
26.10944841236018
 40
26.10944841236018
 40
26.10944841236018
 40
26.10944841236018
 40
65.51868759336563
 40
65.51868759336563
 40
278.0691788478866
 40
278.0691788478866
 40
278.0691788478866
 40
278.0691788478866
 10
164.7636594027433
 20
-233.3980593368167
 30
-122.8303612669375
 10
157.3689647843586
 20
-223.1904476808038
 30
-126.1252246223809
 10
149.9592218998231
 20
-212.6225993113491
 30
-128.4304152795394
 10
102.499974094667
 20
-144.1392607397082
 30
-136.3663980280501
 10
62.07410304388849
 20
-86.36746033735629
 30
-141.4790817634884
 10
21.51720593176568
 20
-28.59565993463493
 30
-144.9612268156188
  0
SPLINE
  5
F4
330
1F
100
AcDbEntity
  8
0
100
AcDbSpline
 70
     0
 71
     3
 72
    10
 73
     6
 74
     0
 42
0.000000001
 43
0.0000000001
 40
27.77693508177245
 40
27.77693508177245
 40
27.77693508177245
 40
27.77693508177245
 40
65.51868759336563
 40
65.51868759336563
 40
278.0646867558658
 40
278.0646867558658
 40
278.0646867558658
 40
278.0646867558658
 10
159.5588613533805
 20
-233.4223698860409
 30
-123.3226363458233
 10
152.6640953603353
 20
-223.5786845264515
 30
-126.4200282476972
 10
145.7561724577101
 20
-213.4051313068288
 30
-128.5878867933256
 10
99.86762308585506
 20
-145.0429851998042
 30
-136.3570280632894
 10
60.52549655096141
 20
-86.98940266520995
 30
-141.4395628035943
 10
21.05788397638651
 20
-28.93582013026178
 30
-144.9605671711542
  0
SPLINE
  5
F5
330
1F
100
AcDbEntity
  8
0
100
AcDbSpline
 70
     0
 71
     3
 72
    10
 73
     6
 74
     0
 42
0.000000001
 43
0.0000000001
 40
28.37413451209756
 40
28.37413451209756
 40
28.37413451209756
 40
28.37413451209756
 40
65.51868759336563
 40
65.51868759336563
 40
278.0583752051335
 40
278.0583752051335
 40
278.0583752051335
 40
278.0583752051335
 10
154.9014157677946
 20
-233.4336165024972
 30
-123.5486518875005
 10
148.3033622412332
 20
-223.7382789773982
 30
-126.5892055945177
 10
141.6931427857479
 20
-213.7189284329628
 30
-128.7101641741656
 10
97.18622679157835
 20
-145.4694065889745
 30
-136.3476892527019
 10
58.94351444994366
 20
-87.37310058219329
 30
-141.4003121986258
 10
20.58080644788119
 20
-29.27679457507364
 30
-144.9598151368579
  0
SPLINE
  5
F6
330
1F
100
AcDbEntity
  8
0
100
AcDbSpline
 70
     0
 71
     3
 72
    10
 73
     6
 74
     0
 42
0.000000001
 43
0.0000000001
 40
29.05551698851229
 40
29.05551698851229
 40
29.05551698851229
 40
29.05551698851229
 40
65.51868759336563
 40
65.51868759336563
 40
277.9908441625528
 40
277.9908441625528
 40
277.9908441625528
 40
277.9908441625528
 10
115.7510413162121
 20
-233.4756395112831
 30
-124.401064844024
 10
110.9141302036605
 20
-224.131711332389
 30
-127.5232653319653
 10
106.0700618439327
 20
-214.4183227568939
 30
-129.6088867896172
 10
72.95557243095125
 20
-147.0512517386601
 30
-136.2682821149754
 10
44.47340317980252
 20
-89.55187218701424
 30
-141.066683445038
 10
15.91783783104776
 20
-32.05249263516114
 30
-144.9523897687119
  0
SPLINE
  5
F7
330
1F
100
AcDbEntity
  8
0
100
AcDbSpline
 70
     0
 71
     3
 72
    10
 73
     6
 74
     0
 42
0.000000001
 43
0.0000000001
 40
29.60124568962933
 40
29.60124568962933
 40
29.60124568962933
 40
29.60124568962933
 40
65.51868759336563
 40
65.51868759336563
 40
277.9315009238358
 40
277.9315009238358
 40
277.9315009238358
 40
277.9315009238358
 10
76.98860671424167
 20
-233.5105864097769
 30
-125.1084335166399
 10
73.81720766597786
 20
-224.4340052342179
 30
-128.287283299789
 10
70.6424791535464
 20
-214.9543505816676
 30
-130.3405584932497
 10
48.67196808482761
 20
-148.2386629666903
 30
-136.2035557042314
 10
29.77447808391366
 20
-91.17245133569759
 30
-140.7935805352721
 10
10.84174604794712
 20
-34.10623970460488
 30
-144.9456086291073
  0
SPLINE
  5
F8
330
1F
100
AcDbEntity
  8
0
100
AcDbSpline
 70
     0
 71
     3
 72
    10
 73
     6
 74
     0
 42
0.000000001
 43
0.0000000001
 40
29.96032525776429
 40
29.96032525776429
 40
29.96032525776429
 40
29.96032525776429
 40
65.51868759336563
 40
65.51868759336563
 40
277.8902418779766
 40
277.8902418779766
 40
277.8902418779766
 40
277.8902418779766
 10
38.46235818966433
 20
-233.534362953545
 30
-125.5897797097035
 10
36.89053042869695
 20
-224.6269698303296
 30
-128.802568327755
 10
35.31782705394195
 20
-215.2953968728609
 30
-130.8327204861693
 10
24.34669164286786
 20
-148.9778762471768
 30
-136.1600132253094
 10
14.92093605991899
 20
-92.17168228893804
 30
-140.6091573471539
 10
5.485714571535707
 20
-35.36548833067158
 30
-144.9407025525015
  0
ARC
  5
F9
330
1F
100
AcDbEntity
  8
0
100
AcDbCircle
 10
0.0
 20
0.0
 30
147.4614499999998
 40
22.0
210
0.0
220
-6.123233995736757E-17
230
-1.0
100
AcDbArc
 50
270.0
 51
89.99999999999999
  0
LINE
  5
FA
330
1F
100
AcDbEntity
  8
0
100
AcDbLine
 10
-22.0
 20
-0.000000000000007
 30
-115.0
 11
-22.0
 21
-0.000000000000011
 31
-179.9229
  0
SPLINE
  5
FB
330
1F
100
AcDbEntity
  8
0
100
AcDbSpline
210
-3.893384853480009E-17
220
1.0
230
1.277890143136605E-15
 70
    12
 71
     2
 72
     6
 73
     3
 74
     0
 42
0.000000001
 43
0.0000000001
 40
76.05362887283268
 40
76.05362887283268
 40
76.05362887283268
 40
570.7259052445404
 40
570.7259052445404
 40
570.7259052445404
 10
-182.5
 20
-80.00101019192924
 30
-100.8770215329515
 41
0.989100691543663
 10
0.0000000000000596
 20
-80.00101019192921
 30
-117.5578623605376
 41
0.9543400092764888
 10
182.5000000000001
 20
-80.00101019192923
 30
-100.8770215329515
 41
0.9284935954839166
  0
ARC
  5
FC
330
1F
100
AcDbEntity
  8
0
100
AcDbCircle
 10
0.0
 20
0.0
 30
147.4614499999998
 40
22.0
210
0.0
220
-6.123233995736757E-17
230
-1.0
100
AcDbArc
 50
90.0
 51
270.0
  0
LINE
  5
FD
330
1F
100
AcDbEntity
  8
0
100
AcDbLine
 10
22.0
 20
-0.000000000000007
 30
-115.0
 11
22.0
 21
-0.000000000000011
 31
-179.9229
  0
LINE
  5
FE
330
1F
100
AcDbEntity
  8
0
100
AcDbLine
 10
0.0
 20
202.9926675332549
 30
-115.0
 11
0.0
 21
147.5
 31
-115.0
  0
LINE
  5
FF
330
1F
100
AcDbEntity
  8
0
100
AcDbLine
 10
0.0
 20
112.5
 30
-115.0
 11
0.0
 21
98.95578844575446
 31
-115.0
  0
LINE
  5
100
330
1F
100
AcDbEntity
  8
0
100
AcDbLine
 10
-250.492667533255
 20
-15.00936509372966
 30
-115.0
 11
-195.0
 21
-15.00936509372966
 31
-115.0
  0
LINE
  5
101
330
1F
100
AcDbEntity
  8
0
100
AcDbLine
 10
195.0
 20
-15.00936509372966
 30
-115.0
 11
250.492667533255
 21
-15.00936509372966
 31
-115.0
  0
SPLINE
  5
102
330
1F
100
AcDbEntity
  8
0
100
AcDbSpline
 70
     0
 71
     3
 72
    44
 73
    40
 74
     0
 42
0.000000001
 43
0.0000000001
 40
0.0
 40
0.0
 40
0.0
 40
0.0
 40
38.43938460578676
 40
76.87876921157353
 40
115.3181538173603
 40
153.7575384231471
 40
153.7575384231471
 40
157.9994906127518
 40
162.2414428023565
 40
166.4833949919612
 40
170.725347181566
 40
174.9672993711707
 40
179.2092515607754
 40
183.4512037503802
 40
187.6931559399849
 40
187.6931559399849
 40
239.6993821713435
 40
291.7056084027021
 40
343.7118346340607
 40
395.7180608654192
 40
395.7180608654192
 40
411.8900719685863
 40
428.0620830717536
 40
444.2340941749209
 40
460.406105278088
 40
460.406105278088
 40
465.8487696554843
 40
471.2914340328807
 40
476.7340984102772
 40
482.1767627876736
 40
487.6194271650699
 40
493.0620915424664
 40
498.5047559198629
 40
503.9474202972592
 40
503.9474202972592
 40
553.9336364343213
 40
603.9198525713836
 40
653.9060687084459
 40
660.5654823638886
 40
660.5654823638886
 40
660.5654823638886
 40
660.5654823638886
 10
0.0
 20
-205.9508349104935
 30
-131.7466760447489
 10
-11.2585060461443
 20
-205.9508349104935
 30
-131.7466760447489
 10
-33.7513574374956
 20
-205.8363595000311
 30
-131.6530776208209
 10
-67.47413458461625
 20
-205.3509106166578
 30
-131.2864366707886
 10
-101.2360717276526
 20
-204.589245619447
 30
-130.7481043642603
 10
-123.8105044735109
 20
-203.927011638083
 30
-130.3111232273392
 10
-136.3749065759754
 20
-203.5258416852467
 30
-130.0569389079096
 10
-138.9034956338477
 20
-203.2172435549059
 30
-130.006159821499
 10
-142.6340604430143
 20
-202.0302914363596
 30
-129.9293023098137
 10
-146.1315177585817
 20
-200.1279575520231
 30
-129.8518292286172
 10
-149.2277734131841
 20
-197.5701932927122
 30
-129.7738138904659
 10
-151.7764395799188
 20
-194.4660670351775
 30
-129.695329607918
 10
-153.6698454204125
 20
-190.9628499664953
 30
-129.6164496935304
 10
-154.8496038250103
 20
-187.2288596822156
 30
-129.5372474598608
 10
-155.1555707297827
 20
-184.6992885117412
 30
-129.4842799662647
 10
-155.6763654138022
 20
-168.1371671566413
 30
-129.1327178722161
 10
-156.5533724503016
 20
-137.0892182099487
 30
-128.4738170559966
 10
-157.5700057306938
 20
-90.24206854856902
 30
-127.5941552013399
 10
-158.2363526441554
 20
-44.13623421363526
 30
-126.9582801453502
 10
-158.4043029350909
 20
-14.46719777124054
 30
-126.7869529264647
 10
-158.4043029350909
 20
4.498762935564458
 30
-126.7869529264647
 10
-158.3859185134257
 20
12.38000104717482
 30
-126.7789067902374
 10
-158.2856710885534
 20
23.26165326326707
 30
-126.7452325922952
 10
-158.1009486086971
 20
33.88763321403166
 30
-126.6924868158317
 10
-157.9324801767451
 20
41.19008696172909
 30
-126.6462975225625
 10
-157.8120735924423
 20
46.33058937271253
 30
-126.6123107390179
 10
-157.519487386254
 20
48.95248058458857
 30
-126.5946659662075
 10
-156.3458927070031
 20
52.82538173064469
 30
-126.5667091331497
 10
-154.4473346344996
 20
56.46303243334127
 30
-126.5373591977359
 10
-151.8873688105509
 20
59.69366136563006
 30
-126.5067127314549
 10
-148.7807064950791
 20
62.36962555828403
 30
-126.4748663057936
 10
-145.2803815535178
 20
64.38541159410981
 30
-126.4419164922405
 10
-141.5586640268999
 20
65.68781940269864
 30
-126.4079598622827
 10
-139.044046645047
 20
66.08021317407749
 30
-126.384715279033
 10
-126.4125932672009
 20
66.94287729665795
 30
-126.2649710870098
 10
-103.5792096855706
 20
68.4496780962551
 30
-126.0261211301519
 10
-69.16550174744994
 20
70.31779265939463
 30
-125.6740249821188
 10
-44.60129756278792
 20
71.21248695606239
 30
-125.481247976027
 10
-31.53635660364074
 20
71.51822526336677
 30
-125.4121862834202
 10
-30.00021429899082
 20
71.55177020895705
 30
-125.4045575684421
  0
SPLINE
  5
103
330
1F
100
AcDbEntity
  8
0
100
AcDbSpline
 70
     0
 71
     3
 72
    10
 73
     6
 74
     0
 42
0.000000001
 43
0.0000000001
 40
29.95936510427887
 40
29.95936510427887
 40
29.95936510427887
 40
29.95936510427887
 40
65.51868759336563
 40
65.51868759336563
 40
277.8902948828161
 40
277.8902948828161
 40
277.8902948828161
 40
277.8902948828161
 10
-38.4649587590489
 20
-233.5350845098536
 30
-125.5994079687804
 10
-36.8938845716623
 20
-224.6274737759211
 30
-128.8158007290424
 10
-35.3217273098323
 20
-215.2956536994652
 30
-130.8489491607143
 10
-24.35343424862309
 20
-148.9778620691802
 30
-136.192682325543
 10
-14.92392644665159
 20
-92.17165393294471
 30
-140.6361868882066
 10
-5.485747908052926
 20
-35.36544579668156
 30
-144.9410721148272
  0
SPLINE
  5
104
330
1F
100
AcDbEntity
  8
0
100
AcDbSpline
 70
     0
 71
     3
 72
    10
 73
     6
 74
     0
 42
0.000000001
 43
0.0000000001
 40
29.59879038099272
 40
29.59879038099272
 40
29.59879038099272
 40
29.59879038099272
 40
65.51868759336563
 40
65.51868759336563
 40
277.9316641358942
 40
277.9316641358942
 40
277.9316641358942
 40
277.9316641358942
 10
-76.9983746623578
 20
-233.5124478235621
 30
-125.1442050595594
 10
-73.82976856954639
 20
-224.4353012877481
 30
-128.3364556378787
 10
-70.65704332860328
 20
-214.9550102177793
 30
-130.4009082458771
 10
-48.69706708173747
 20
-148.2386191186111
 30
-136.3251934955124
 10
-29.78559441433732
 20
-91.17236363953917
 30
-140.8942028774214
 10
-10.84184639241879
 20
-34.10610816036726
 30
-144.9469240009293
  0
SPLINE
  5
105
330
1F
100
AcDbEntity
  8
0
100
AcDbSpline
 70
     0
 71
     3
 72
    10
 73
     6
 74
     0
 42
0.000000001
 43
0.0000000001
 40
29.05080100748068
 40
29.05080100748068
 40
29.05080100748068
 40
29.05080100748068
 40
65.51868759336563
 40
65.51868759336563
 40
277.9912444334854
 40
277.9912444334854
 40
277.9912444334854
 40
277.9912444334854
 10
-115.7716184326587
 20
-233.4792649965577
 30
-124.4744644101947
 10
-110.9404973754555
 20
-224.1342239010141
 30
-127.6250202984894
 10
-106.1005188425111
 20
-214.4195989993329
 30
-129.7342851586122
 10
-73.0078261329949
 20
-147.0511434170305
 30
-136.5216398277497
 10
-44.49649103708953
 20
-89.55165554375475
 30
-141.2762196570172
 10
-15.91795703593396
 20
-32.05216767027186
 30
-144.9549571314127
  0
SPLINE
  5
106
330
1F
100
AcDbEntity
  8
0
100
AcDbSpline
 70
     0
 71
     3
 72
    10
 73
     6
 74
     0
 42
0.000000001
 43
0.0000000001
 40
28.36665775838974
 40
28.36665775838974
 40
28.36665775838974
 40
28.36665775838974
 40
65.51868759336563
 40
65.51868759336563
 40
278.0589384237963
 40
278.0589384237963
 40
278.0589384237963
 40
278.0589384237963
 10
-154.9353800760038
 20
-233.4394711291213
 30
-123.6662417558606
 10
-148.3467921930944
 20
-223.7423125225285
 30
-126.7541645035694
 10
-141.743142797721
 20
-213.7209721537202
 30
-128.9145801311517
 10
-97.27165256869488
 20
-145.4692526369096
 30
-136.7619581487379
 10
-58.98120301801683
 20
-87.37279267806345
 30
-141.7428326875766
 10
-20.58092440108231
 20
-29.27633271887888
 30
-144.9636813864398
  0
SPLINE
  5
107
330
1F
100
AcDbEntity
  8
0
100
AcDbSpline
 70
     0
 71
     3
 72
    10
 73
     6
 74
     0
 42
0.000000001
 43
0.0000000001
 40
27.7692735422295
 40
27.7692735422295
 40
27.7692735422295
 40
27.7692735422295
 40
65.51868759336563
 40
65.51868759336563
 40
278.0652581802925
 40
278.0652581802925
 40
278.0652581802925
 40
278.0652581802925
 10
-159.5938653362176
 20
-233.4283646213052
 30
-123.4432940849184
 10
-152.7092678587731
 20
-223.5828149639702
 30
-126.591239464759
 10
-145.8083789121777
 20
-213.4072239353421
 30
-128.8011325250609
 10
-99.95695863359006
 20
-145.0428291242478
 30
-136.790256697069
 10
-60.56490697536088
 20
-86.9890905140968
 30
-141.7977498450989
 10
-21.05800443949695
 20
-28.93535190359198
 30
-144.9645775312956
  0
SPLINE
  5
108
330
1F
100
AcDbEntity
  8
0
100
AcDbSpline
 70
     0
 71
     3
 72
    10
 73
     6
 74
     0
 42
0.000000001
 43
0.0000000001
 40
26.10187299581958
 40
26.10187299581958
 40
26.10187299581958
 40
26.10187299581958
 40
65.51868759336563
 40
65.51868759336563
 40
278.0698126087866
 40
278.0698126087866
 40
278.0698126087866
 40
278.0698126087866
 10
-164.7984697884362
 20
-233.4039457523268
 30
-122.9495101015449
 10
-157.4152685474624
 20
-223.1945104716811
 30
-126.3001923966497
 10
-150.013424603299
 20
-212.6246583301249
 30
-128.6515567070571
 10
-102.5932443743734
 20
-144.1390884817753
 30
-136.8187584338532
 10
-62.1152309328199
 20
-86.36711582149087
 30
-141.8530806241906
 10
-21.51729867433907
 20
-28.59514316083687
 30
-144.965391947485
  0
SPLINE
  5
109
330
1F
100
AcDbEntity
  8
0
100
AcDbSpline
 70
     0
 71
     3
 72
    10
 73
     6
 74
     0
 42
0.000000001
 43
0.0000000001
 40
23.33726155180556
 40
23.33726155180556
 40
23.33726155180556
 40
23.33726155180556
 40
65.51868759336563
 40
65.51868759336563
 40
278.0720759045146
 40
278.0720759045146
 40
278.0720759045146
 40
278.0720759045146
 10
-170.4091860002356
 20
-233.3651202196632
 30
-122.1631406075595
 10
-162.3158232351743
 20
-222.5828706890492
 30
-125.870917158994
 10
-154.2000108166926
 20
-211.3810739703873
 30
-128.4634398511386
 10
-105.0703437054031
 20
-142.7634947223223
 30
-136.8474164388135
 10
-63.57968820573535
 20
-85.50827028845194
 30
-141.9087460998479
 10
-21.96400423891394
 20
-28.25304585419636
 30
-144.9661053500304
  0
SPLINE
  5
10A
330
1F
100
AcDbEntity
  8
0
100
AcDbSpline
 70
     0
 71
     3
 72
    10
 73
     6
 74
     0
 42
0.000000001
 43
0.0000000001
 40
19.4934898041458
 40
19.4934898041458
 40
19.4934898041458
 40
19.4934898041458
 40
65.51868759336563
 40
65.51868759336563
 40
278.0715529800767
 40
278.0715529800767
 40
278.0715529800767
 40
278.0715529800767
 10
-176.2504013024415
 20
-233.3107728771661
 30
-121.0628907798185
 10
-167.2392841886546
 20
-221.7717640244014
 30
-125.2946297071134
 10
-158.2000115553892
 20
-209.7185924142006
 30
-128.235805051934
 10
-107.2795771280923
 20
-140.9550482668059
 30
-136.8761837124947
 10
-64.9058682449962
 20
-84.43096357393823
 30
-141.9646682549133
 10
-22.4019839172775
 20
-27.90687888066955
 30
-144.9667014725669
  0
SPLINE
  5
10B
330
1F
100
AcDbEntity
  8
0
100
AcDbSpline
 70
     0
 71
     3
 72
    10
 73
     6
 74
     0
 42
0.000000001
 43
0.0000000001
 40
14.64181797691259
 40
14.64181797691259
 40
14.64181797691259
 40
14.64181797691259
 40
65.51868759336563
 40
65.51868759336563
 40
278.0682897214444
 40
278.0682897214444
 40
278.0682897214444
 40
278.0682897214444
 10
-182.1177486928264
 20
-233.2402490141961
 30
-119.6344929786405
 10
-172.002036493539
 20
-220.8024953480754
 30
-124.566486331839
 10
-161.8500258749523
 20
-207.7118494873763
 30
-127.9695000540633
 10
-109.1263002401125
 20
-138.784425086144
 30
-136.9050305544319
 10
-66.04805554413315
 20
-83.16929827230298
 30
-142.0207945766599
 10
-22.83445576800653
 20
-27.55417145804515
 30
-144.9671881740116
  0
SPLINE
  5
10C
330
1F
100
AcDbEntity
  8
0
100
AcDbSpline
 70
     0
 71
     3
 72
    10
 73
     6
 74
     0
 42
0.000000001
 43
0.0000000001
 40
8.91039035924357
 40
8.91039035924357
 40
8.91039035924357
 40
8.91039035924357
 40
65.51868759336563
 40
65.51868759336563
 40
278.0625336615908
 40
278.0625336615908
 40
278.0625336615908
 40
278.0625336615908
 10
-187.7897699209805
 20
-233.1535548255479
 30
-117.8788153912043
 10
-176.4216495274608
 20
-219.7294006384036
 30
-123.6886738288762
 10
-165.0060657985201
 20
-205.4603755822727
 30
-127.6674645432814
 10
-110.5408822150457
 20
-136.3469687586755
 30
-136.933934252899
 10
-66.9729176676359
 20
-81.76954975345646
 30
-142.077082332683
 10
-23.26439054782198
 20
-27.19213074780464
 30
-144.9675814613227
  0
SPLINE
  5
10D
330
1F
100
AcDbEntity
  8
0
100
AcDbSpline
 70
     0
 71
     3
 72
    10
 73
     6
 74
     0
 42
0.000000001
 43
0.0000000001
 40
2.482044405552632
 40
2.482044405552632
 40
2.482044405552632
 40
2.482044405552632
 40
65.51868759336563
 40
65.51868759336563
 40
278.0544837622932
 40
278.0544837622932
 40
278.0544837622932
 40
278.0544837622932
 10
-193.0428950995291
 20
-233.0516835863387
 30
-115.8197516964383
 10
-180.3301833445887
 20
-218.6129316774794
 30
-122.6733381483421
 10
-167.5552769643718
 20
-203.0767511798553
 30
-127.3348052434419
 10
-111.4856805000402
 20
-133.7517609260115
 30
-136.9628708710397
 10
-67.66325241032945
 20
-80.28472324838056
 30
-142.1334866655548
 10
-23.69503119088917
 20
-26.81768557030084
 30
-144.967894659238
  0
SPLINE
  5
10E
330
1F
100
AcDbEntity
  8
0
100
AcDbSpline
 70
     0
 71
     3
 72
    10
 73
     6
 74
     0
 42
0.000000001
 43
0.0000000001
 40
-0.0000000000000036
 40
-0.0000000000000036
 40
-0.0000000000000036
 40
-0.0000000000000036
 40
65.51868759336563
 40
65.51868759336563
 40
278.0443486984951
 40
278.0443486984951
 40
278.0443486984951
 40
278.0443486984951
 10
-195.0
 20
-229.9999999905333
 30
-115.0
 10
-181.7973388753715
 20
-215.3848414036049
 30
-122.218790950182
 10
-168.5245755787933
 20
-199.58633427745
 30
-127.1351246580782
 10
-111.9566558320342
 20
-131.1090011497589
 30
-136.9918172057033
 10
-68.11907863910346
 20
-78.76774493721277
 30
-142.1899633894369
 10
-24.13045951112119
 20
-26.42648872420185
 30
-144.9681408630947
  0
SPLINE
  5
10F
330
1F
100
AcDbEntity
  8
0
100
AcDbSpline
 70
     0
 71
     3
 72
    10
 73
     6
 74
     0
 42
0.000000001
 43
0.0000000001
 40
-0.0000000000000171
 40
-0.0000000000000171
 40
-0.0000000000000171
 40
-0.0000000000000171
 40
65.51868759336563
 40
65.51868759336563
 40
277.8915046167219
 40
277.8915046167219
 40
277.8915046167219
 40
277.8915046167219
 10
-195.0
 20
-171.6485114167282
 30
-114.9999999999999
 10
-182.2613094362709
 20
-160.6889014905674
 30
-121.2017862009236
 10
-169.4229361768184
 20
-148.9738722690201
 30
-125.7617123328437
 10
-114.6265851583769
 20
-98.37164422551535
 30
-137.3416884507453
 10
-71.89853064553078
 20
-59.69994128130624
 30
-142.8746516277475
 10
-28.95555106251999
 20
-21.02823833643802
 30
-144.9715424138577
  0
SPLINE
  5
110
330
1F
100
AcDbEntity
  8
0
100
AcDbSpline
 70
     0
 71
     3
 72
    10
 73
     6
 74
     0
 42
0.000000001
 43
0.0000000001
 40
-0.0000000000000307
 40
-0.0000000000000307
 40
-0.0000000000000307
 40
-0.0000000000000307
 40
65.51868759336563
 40
65.51868759336563
 40
277.7214639079431
 40
277.7214639079431
 40
277.7214639079431
 40
277.7214639079431
 10
-195.0
 20
-113.1225846868014
 30
-115.0
 10
-182.6219430895654
 20
-105.8230810957644
 30
-120.2992291645089
 10
-170.1179517772156
 20
-98.14793082141249
 30
-124.5428557257895
 10
-116.6820887059759
 20
-65.16017531258781
 30
-137.6489713468574
 10
-74.77905950372397
 20
-39.95472952219937
 30
-143.4795839713806
 10
-32.6042963081256
 20
-14.74928373098048
 30
-144.9762943495186
  0
SPLINE
  5
111
330
1F
100
AcDbEntity
  8
0
100
AcDbSpline
 70
     0
 71
     3
 72
    10
 73
     6
 74
     0
 42
0.000000001
 43
0.0000000001
 40
-0.0000000000000442
 40
-0.0000000000000442
 40
-0.0000000000000442
 40
-0.0000000000000442
 40
65.51868759336563
 40
65.51868759336563
 40
277.5794787963076
 40
277.5794787963076
 40
277.5794787963076
 40
277.5794787963076
 10
-195.0
 20
-55.58035222351344
 30
-115.0
 10
-182.8581075610948
 20
-51.93379891232081
 30
-119.6533747073159
 10
-170.571495446027
 20
-48.18335773673596
 30
-123.6706626780547
 10
-118.0192371632439
 20
-32.16851041049011
 30
-137.8666667743594
 10
-76.63921906120719
 20
-19.93373999545481
 30
-143.9107135471186
 10
-34.94673526629813
 20
-7.698969579467303
 30
-144.9811602396988
  0
SPLINE
  5
112
330
1F
100
AcDbEntity
  8
0
100
AcDbSpline
 70
     0
 71
     3
 72
    10
 73
     6
 74
     0
 42
0.000000001
 43
0.0000000001
 40
-0.0000000000000578
 40
-0.0000000000000578
 40
-0.0000000000000578
 40
-0.0000000000000578
 40
65.51868759336563
 40
65.51868759336563
 40
277.524678320373
 40
277.524678320373
 40
277.524678320373
 40
277.524678320373
 10
-194.9999999999999
 20
-0.0000000000000107
 30
-115.0
 10
-182.9438470758854
 20
-0.000000000000008
 30
-119.4064776957231
 10
-170.7357932476677
 20
-0.0000000000000084
 30
-123.3372410307787
 10
-118.5019496235593
 20
-0.000000000000008
 30
-137.949563397339
 10
-77.3071591672179
 20
-0.0000000000000084
 30
-144.075342561569
 10
-35.78431816299633
 20
0.0000000009986171
 30
-144.9834679322298
  0
SPLINE
  5
113
330
1F
100
AcDbEntity
  8
0
100
AcDbSpline
 70
     0
 71
     3
 72
    10
 73
     6
 74
     0
 42
0.000000001
 43
0.0000000001
 40
-0.000000000000062
 40
-0.000000000000062
 40
-0.000000000000062
 40
-0.000000000000062
 40
65.51868759336563
 40
65.51868759336563
 40
277.5289993105599
 40
277.5289993105599
 40
277.5289993105599
 40
277.5289993105599
 10
-195.0
 20
15.15624033287608
 30
-115.0
 10
-182.9325462926664
 20
14.18118638273381
 30
-119.4010731811401
 10
-170.7144027012237
 20
13.20340213858098
 30
-123.3280317038691
 10
-118.441175308562
 20
9.051812506139592
 30
-137.9302560345452
 10
-77.22635836396582
 20
5.856056697186508
 30
-144.0624849807187
 10
-35.68611246683682
 20
2.650013443314577
 30
-144.9832805051427
  0
SPLINE
  5
114
330
1F
100
AcDbEntity
  8
0
100
AcDbSpline
 70
     0
 71
     3
 72
    10
 73
     6
 74
     0
 42
0.000000001
 43
0.0000000001
 40
-0.0000000000000662
 40
-0.0000000000000662
 40
-0.0000000000000662
 40
-0.0000000000000662
 40
65.51868759336563
 40
65.51868759336563
 40
277.5402185018429
 40
277.5402185018429
 40
277.5402185018429
 40
277.5402185018429
 10
-195.0000000000001
 20
28.56224138475324
 30
-115.0
 10
-182.8952332052874
 20
26.79116969798943
 30
-119.3856433537005
 10
-170.6432339747245
 20
25.00957275898246
 30
-123.3017391806709
 10
-118.236380796819
 20
17.42479758899286
 30
-137.8750733025765
 10
-76.948270182163
 20
11.53699083533533
 30
-144.0257147769759
 10
-35.34221311962182
 20
5.609524751072949
 30
-144.9827388606809
  0
SPLINE
  5
115
330
1F
100
AcDbEntity
  8
0
100
AcDbSpline
 70
     0
 71
     3
 72
    10
 73
     6
 74
     0
 42
0.000000001
 43
0.0000000001
 40
-0.0000000000000704
 40
-0.0000000000000704
 40
-0.0000000000000704
 40
-0.0000000000000704
 40
65.51868759336563
 40
65.51868759336563
 40
277.5557334136341
 40
277.5557334136341
 40
277.5557334136341
 40
277.5557334136341
 10
-195.0000000000001
 20
41.5302989404464
 30
-115.0
 10
-182.8294747947335
 20
39.02259216776834
 30
-119.3613637878683
 10
-170.5171576125546
 20
36.49209440609101
 30
-123.2603666474794
 10
-117.8705794038306
 20
25.69023065847405
 30
-137.7881238687129
 10
-76.44476064502025
 20
17.23558357132333
 30
-143.9677382471163
 10
-34.71276511901183
 20
8.695055620095737
 30
-144.9818793039545
  0
SPLINE
  5
116
330
1F
100
AcDbEntity
  8
0
100
AcDbSpline
 70
     0
 71
     3
 72
    10
 73
     6
 74
     0
 42
0.000000001
 43
0.0000000001
 40
-0.0000000000000746
 40
-0.0000000000000746
 40
-0.0000000000000746
 40
-0.0000000000000746
 40
65.51868759336563
 40
65.51868759336563
 40
277.5786835858984
 40
277.5786835858984
 40
277.5786835858984
 40
277.5786835858984
 10
-195.0000000000001
 20
54.99999999230713
 30
-115.0
 10
-182.7403532741765
 20
51.71570219708832
 30
-119.329410058108
 10
-170.3460746234727
 20
48.39247078328918
 30
-123.2059172905905
 10
-117.372552708551
 20
34.17313695182541
 30
-137.6738159278343
 10
-75.75662391139952
 20
22.96386232630455
 30
-143.8915980364729
 10
-33.85000895793402
 20
11.60786810958357
 30
-144.9808254980981
  0
SPLINE
  5
117
330
1F
100
AcDbEntity
  8
0
100
AcDbSpline
 70
     0
 71
     3
 72
    10
 73
     6
 74
     0
 42
0.000000001
 43
0.0000000001
 40
-0.0000000000000746
 40
-0.0000000000000746
 40
-0.0000000000000746
 40
-0.0000000000000746
 40
65.51868759336563
 40
65.51868759336563
 40
277.5850287078591
 40
277.5850287078591
 40
277.5850287078591
 40
277.5850287078591
 10
-194.5401354203958
 20
59.7734781472131
 30
-114.9999999999999
 10
-182.2827458227239
 20
56.20600983080079
 30
-119.3171360349559
 10
-169.8934746096057
 20
52.59340721092104
 30
-123.1850022777866
 10
-116.9494257605542
 20
37.12546007227002
 30
-137.6297768767859
 10
-75.37907319200636
 20
24.90704258141222
 30
-143.8622102998187
 10
-33.52398074171496
 20
12.51853523887521
 30
-144.9803946739844
  0
SPLINE
  5
118
330
1F
100
AcDbEntity
  8
0
100
AcDbSpline
 70
     0
 71
     3
 72
    10
 73
     6
 74
     0
 42
0.000000001
 43
0.0000000001
 40
-0.0000000000000746
 40
-0.0000000000000746
 40
-0.0000000000000746
 40
-0.0000000000000746
 40
65.51868759336563
 40
65.51868759336563
 40
277.5857066929293
 40
277.5857066929293
 40
277.5857066929293
 40
277.5857066929293
 10
-193.1373809716355
 20
64.46923512803684
 30
-115.0
 10
-180.9541960053563
 20
60.62396176387713
 30
-119.3041707620585
 10
-168.642034625285
 20
56.72700420052974
 30
-123.1629093710601
 10
-116.0345529550895
 20
40.03072464789815
 30
-137.5829435051512
 10
-74.74602266966075
 20
26.81563755280892
 30
-143.8308144111379
 10
-33.17902583708806
 20
13.405776746894
 30
-144.9798473419698
  0
SPLINE
  5
119
330
1F
100
AcDbEntity
  8
0
100
AcDbSpline
 70
     0
 71
     3
 72
    10
 73
     6
 74
     0
 42
0.000000001
 43
0.0000000001
 40
-0.0000000000000746
 40
-0.0000000000000746
 40
-0.0000000000000746
 40
-0.0000000000000746
 40
65.51868759336563
 40
65.51868759336563
 40
277.5799204638563
 40
277.5799204638563
 40
277.5799204638563
 40
277.5799204638563
 10
-190.8058286166352
 20
68.86083516834205
 30
-115.0
 10
-178.7676464087183
 20
64.7612325679799
 30
-119.2905590512487
 10
-166.6035378396441
 20
60.60306930026149
 30
-123.1397149300573
 10
-114.6349016779208
 20
42.77576955443725
 30
-137.5334379792301
 10
-73.86071016250415
 20
28.63557976369556
 30
-143.7974694786755
 10
-32.81463032150859
 20
14.27470590625437
 30
-144.9791647425956
  0
SPLINE
  5
11A
330
1F
100
AcDbEntity
  8
0
100
AcDbSpline
 70
     0
 71
     3
 72
    10
 73
     6
 74
     0
 42
0.000000001
 43
0.0000000001
 40
-0.0000000000000746
 40
-0.0000000000000746
 40
-0.0000000000000746
 40
-0.0000000000000746
 40
65.51868759336563
 40
65.51868759336563
 40
277.5676343950354
 40
277.5676343950354
 40
277.5676343950354
 40
277.5676343950354
 10
-187.628346031737
 20
72.7270102934289
 30
-115.0
 10
-175.7993896646232
 20
68.41417525929238
 30
-119.2763457143607
 10
-163.8476917987277
 20
64.03559915556748
 30
-123.1154953144254
 10
-112.7921905880843
 20
45.24949487196406
 30
-137.4814223360108
 10
-72.74336861323737
 20
30.31322302939595
 30
-143.7622789397125
 10
-32.42952029655999
 20
15.12921718677246
 30
-144.9783388719505
  0
SPLINE
  5
11B
330
1F
100
AcDbEntity
  8
0
100
AcDbSpline
 70
     0
 71
     3
 72
    10
 73
     6
 74
     0
 42
0.000000001
 43
0.0000000001
 40
-0.0000000000000746
 40
-0.0000000000000746
 40
-0.0000000000000746
 40
-0.0000000000000746
 40
65.51868759336563
 40
65.51868759336563
 40
277.5486219609701
 40
277.5486219609701
 40
277.5486219609701
 40
277.5486219609701
 10
-183.7525351701409
 20
75.87756814619334
 30
-114.9999999999999
 10
-172.1853606307373
 20
71.40775917838805
 30
-119.2615755632276
 10
-160.4987542234284
 20
66.86474744308354
 30
-123.0903268838109
 10
-110.5811168931565
 20
47.35651977194704
 30
-137.4270489155799
 10
-71.43073133422465
 20
31.80266378622236
 30
-143.7253345971393
 10
-32.02244389381563
 20
15.97297150854901
 30
-144.9773574566232
  0
SPLINE
  5
11C
330
1F
100
AcDbEntity
  8
0
100
AcDbSpline
 70
     0
 71
     3
 72
    10
 73
     6
 74
     0
 42
0.000000001
 43
0.0000000001
 40
-0.0000000000000746
 40
-0.0000000000000746
 40
-0.0000000000000746
 40
-0.0000000000000746
 40
65.51868759336563
 40
65.51868759336563
 40
277.5231101982063
 40
277.5231101982063
 40
277.5231101982063
 40
277.5231101982063
 10
-179.3749218779854
 20
78.17574984588532
 30
-115.0
 10
-168.1065368831166
 20
73.61618486745085
 30
-119.2462934096833
 10
-156.7221443784805
 20
68.97569676631237
 30
-123.0642859978608
 10
-108.1009954796881
 20
49.02861362988036
 30
-137.3704936646149
 10
-69.97148180824038
 20
33.07147052984137
 30
-143.6867548829663
 10
-31.59143248738675
 20
16.80942348230145
 30
-144.9762152968195
  0
SPLINE
  5
11D
330
1F
100
AcDbEntity
  8
0
100
AcDbSpline
 70
     0
 71
     3
 72
    10
 73
     6
 74
     0
 42
0.000000001
 43
0.0000000001
 40
-0.0000000000000746
 40
-0.0000000000000746
 40
-0.0000000000000746
 40
-0.0000000000000746
 40
65.51868759336563
 40
65.51868759336563
 40
277.4913449120031
 40
277.4913449120031
 40
277.4913449120031
 40
277.4913449120031
 10
-174.7170553759824
 20
79.55103495035505
 30
-115.0
 10
-163.7669216534094
 20
74.97470872135915
 30
-119.230544065561
 10
-152.7043094652287
 20
70.30950299554527
 30
-123.0374490162218
 10
-105.4637079037741
 20
50.23141141856942
 30
-137.3119335114557
 10
-68.42040642534472
 20
34.10425222078105
 30
-143.6466593058067
 10
-31.13415662470173
 20
17.64224305190228
 30
-144.9749073990225
  0
SPLINE
  5
11E
330
1F
100
AcDbEntity
  8
0
100
AcDbSpline
 70
     0
 71
     3
 72
    10
 73
     6
 74
     0
 42
0.000000001
 43
0.0000000001
 40
-0.0000000000000746
 40
-0.0000000000000746
 40
-0.0000000000000746
 40
-0.0000000000000746
 40
65.51868759336563
 40
65.51868759336563
 40
277.4536437473074
 40
277.4536437473074
 40
277.4536437473074
 40
277.4536437473074
 10
-169.9999999908507
 20
80.00000000000004
 30
-115.0
 10
-159.3699690267573
 20
75.48046691307589
 30
-119.2143723426945
 10
-148.6310832859978
 20
70.86388457469542
 30
-123.0098922985406
 10
-102.7802624071317
 20
50.96505941094743
 30
-137.2515490524314
 10
-66.83122202102038
 20
34.90319433614862
 30
-143.6051716993565
 10
-30.64702112803781
 20
18.47574180558136
 30
-144.9734302024567
  0
SPLINE
  5
11F
330
1F
100
AcDbEntity
  8
0
100
AcDbSpline
 70
     0
 71
     3
 72
    10
 73
     6
 74
     0
 42
0.000000001
 43
0.0000000001
 40
-0.0000000000000034
 40
-0.0000000000000034
 40
-0.0000000000000034
 40
-0.0000000000000034
 40
65.51868759336563
 40
65.51868759336563
 40
263.8751142872893
 40
263.8751142872893
 40
263.8751142872893
 40
263.8751142872893
 10
-127.2425221467105
 20
80.00000000000003
 30
-115.0
 10
-119.414005940966
 20
76.29725105559639
 30
-119.0539086145215
 10
-111.5125909690621
 20
72.41638856631836
 30
-122.7364610944666
 10
-79.45122959232029
 20
56.17736015005972
 30
-135.989644084091
 10
-54.807564468916
 20
42.58458611601848
 30
-142.360470439895
 10
-30.00000000019813
 20
28.35294300253825
 30
-144.5706001413723
  0
SPLINE
  5
120
330
1F
100
AcDbEntity
  8
0
100
AcDbSpline
 70
     0
 71
     3
 72
    10
 73
     6
 74
     0
 42
0.000000001
 43
0.0000000001
 40
0.0000000000000678
 40
0.0000000000000678
 40
0.0000000000000678
 40
0.0000000000000678
 40
65.51868759336563
 40
65.51868759336563
 40
226.7145332205201
 40
226.7145332205201
 40
226.7145332205201
 40
226.7145332205201
 10
-84.77218744499164
 20
80.0
 30
-115.0
 10
-79.59789316810219
 20
76.98346105037069
 30
-118.8963120140335
 10
-74.3860136821266
 20
73.70919269994054
 30
-122.4679154940371
 10
-56.24564447493575
 20
61.62218759785778
 30
-133.6087350139404
 10
-43.16282224908684
 20
51.70393783294673
 30
-139.399284191277
 10
-30.00001311465429
 20
41.04145487820605
 30
-142.6527981299776
  0
SPLINE
  5
121
330
1F
100
AcDbEntity
  8
0
100
AcDbSpline
 70
     0
 71
     3
 72
    10
 73
     6
 74
     0
 42
0.000000001
 43
0.0000000001
 40
0.000000000000139
 40
0.000000000000139
 40
0.000000000000139
 40
0.000000000000139
 40
65.51868759336563
 40
65.51868759336563
 40
103.9826015148182
 40
103.9826015148182
 40
103.9826015148182
 40
103.9826015148182
 10
-42.41462134237723
 20
80.0
 30
-115.0000000000001
 10
-39.82245174805627
 20
77.45032034658377
 30
-118.7762968753711
 10
-37.21958941209886
 20
74.58228112674666
 30
-122.2634089414026
 10
-33.07488021541715
 20
69.60160834412164
 30
-127.2872346837242
 10
-31.53872773493034
 20
67.66608138550096
 30
-129.0347327423041
 10
-29.99998599678849
 20
65.64714899639525
 30
-130.6648136457036
  0
ARC
  5
122
330
1F
100
AcDbEntity
  8
0
100
AcDbCircle
 10
0.0
 20
-0.0000000000000099
 30
-162.4308818220452
 40
34.20498207523856
100
AcDbArc
 50
151.2903431712379
 51
270.0
  0
LINE
  5
123
330
1F
100
AcDbEntity
  8
0
100
AcDbLine
 10
-32.62138378181864
 20
-0.000000000000011
 30
-179.9229
 11
-35.78454327606099
 21
-0.0000000000000089
 31
-144.9834563273193
  0
ARC
  5
124
330
1F
100
AcDbEntity
  8
0
100
AcDbCircle
 10
-247.5
 20
-295.0000000000001
 30
-77.5
 40
3.647232468063123
100
AcDbArc
 50
180.0
 51
270.0
  0
LINE
  5
125
330
1F
100
AcDbEntity
  8
0
100
AcDbLine
 10
-252.5
 20
-47.5
 30
0.0000000000000029
 11
-250.492667533255
 21
-47.5
 31
-115.0
  0
LINE
  5
126
330
1F
100
AcDbEntity
  8
0
100
AcDbLine
 10
-251.1472324680631
 20
200.0
 30
-77.5
 11
-251.1472324680631
 21
-295.0
 31
-77.49999999999996
  0
ARC
  5
127
330
1F
100
AcDbEntity
  8
0
100
AcDbCircle
 10
-247.5
 20
200.0
 30
-57.5
 40
3.996333766627458
100
AcDbArc
 50
90.0
 51
180.0
  0
LINE
  5
128
330
1F
100
AcDbEntity
  8
0
100
AcDbLine
 10
-0.0000000000000568
 20
202.992667533255
 30
-115.0
 11
-0.0000000000000568
 21
205.0
 31
-0.0000000000000177
  0
LINE
  5
129
330
1F
100
AcDbEntity
  8
0
100
AcDbLine
 10
-247.5
 20
203.9963337666275
 30
-57.5
 11
247.4999999999999
 21
203.9963337666275
 31
-57.5
  0
ARC
  5
12A
330
1F
100
AcDbEntity
  8
0
100
AcDbCircle
 10
247.4999999999999
 20
199.9999999999999
 30
-57.5
 40
3.99633376662743
100
AcDbArc
 50
0.0
 51
90.0
  0
LINE
  5
12B
330
1F
100
AcDbEntity
  8
0
100
AcDbLine
 10
250.4926675332549
 20
-47.5
 30
-114.9999999999999
 11
252.5
 21
-47.5
 31
0.0000000000000189
  0
LINE
  5
12C
330
1F
100
AcDbEntity
  8
0
100
AcDbLine
 10
251.147232468063
 20
199.9999999999999
 30
-77.49999999999999
 11
251.1472324680631
 21
-294.9999999999998
 31
-77.49999999999996
  0
ARC
  5
12D
330
1F
100
AcDbEntity
  8
0
100
AcDbCircle
 10
247.5
 20
-294.9999999999999
 30
-77.5
 40
3.647232468063123
100
AcDbArc
 50
270.0
 51
0.0
  0
LINE
  5
12E
330
1F
100
AcDbEntity
  8
0
100
AcDbLine
 10
-0.0000000000000284
 20
-300.0
 30
0.0000000000000184
 11
-0.0000000000000284
 21
-297.2944649361263
 31
-154.9999999999999
  0
LINE
  5
12F
330
1F
100
AcDbEntity
  8
0
100
AcDbLine
 10
-247.4999999999999
 20
-298.6472324680632
 30
-77.49999999999997
 11
247.5
 21
-298.6472324680631
 31
-77.49999999999997
  0
LINE
  5
130
330
1F
100
AcDbEntity
  8
0
100
AcDbLine
 10
-0.0000000000000284
 20
-234.9867063209886
 30
-155.0
 11
-0.0000000000000284
 21
-297.2944649361263
 31
-155.0
  0
LINE
  5
131
330
1F
100
AcDbEntity
  8
0
100
AcDbLine
 10
-249.7944649361263
 20
-266.1405856285575
 30
-155.0
 11
249.7944649361262
 21
-266.1405856285575
 31
-155.0
  0
LINE
  5
132
330
1F
100
AcDbEntity
  8
0
100
AcDbLine
 10
0.0
 20
204.9999999999999
 30
-0.0000000000000126
 11
0.0
 21
147.5
 31
-0.000000000000009
  0
LINE
  5
133
330
1F
100
AcDbEntity
  8
0
100
AcDbLine
 10
0.0
 20
112.5
 30
-0.0000000000000069
 11
0.0
 21
75.00000000000013
 31
-0.0000000000000046
  0
LINE
  5
134
330
1F
100
AcDbEntity
  8
0
100
AcDbLine
 10
0.0
 20
-265.0000000000001
 30
0.0000000000000162
 11
0.0
 21
-300.0
 31
0.0000000000000184
  0
LINE
  5
135
330
1F
100
AcDbEntity
  8
0
100
AcDbLine
 10
-252.5
 20
-47.5
 30
0.0000000000000029
 11
-217.4999999999999
 21
-47.5
 31
0.0000000000000029
  0
LINE
  5
136
330
1F
100
AcDbEntity
  8
0
100
AcDbLine
 10
217.4999999999997
 20
-47.5
 30
0.0000000000000029
 11
252.5
 21
-47.5
 31
0.0000000000000029
  0
LINE
  5
137
330
1F
100
AcDbEntity
  8
0
100
AcDbLine
 10
0.0
 20
-233.543083177663
 30
-125.7666313476444
 11
0.0
 21
-234.9867063209886
 31
-155.0
  0
LINE
  5
138
330
1F
100
AcDbEntity
  8
0
100
AcDbLine
 10
-250.1435662346906
 20
-233.9990520000014
 30
-134.9999999999999
 11
250.1435662346906
 21
-233.9990520000014
 31
-134.9999999999999
  0
LINE
  5
139
330
1F
100
AcDbEntity
  8
0
100
AcDbLine
 10
0.0
 20
-32.62138378181864
 30
-179.9229
 11
0.0
 21
-22.00000000000001
 31
-179.9229
  0
LINE
  5
13A
330
1F
100
AcDbEntity
  8
0
100
AcDbLine
 10
0.0
 20
21.99999999999999
 30
-179.9229
 11
0.0
 21
32.62138378181861
 31
-179.9229
  0
LINE
  5
13B
330
1F
100
AcDbEntity
  8
0
100
AcDbLine
 10
-32.62138378181861
 20
-0.000000000000011
 30
-179.9229
 11
-22.0
 21
-0.000000000000011
 31
-179.9229
  0
LINE
  5
13C
330
1F
100
AcDbEntity
  8
0
100
AcDbLine
 10
22.0
 20
-0.000000000000011
 30
-179.9229
 11
32.62138378181861
 21
-0.000000000000011
 31
-179.9229
  0
ARC
  5
13D
330
1F
100
AcDbEntity
  8
0
100
AcDbCircle
 10
-38.35820831858539
 20
-117.5823420266132
 30
0.0
 40
60.65257791397729
210
-1.0
220
0.0
230
0.0
100
AcDbArc
 50
177.5598393067788
 51
270.0
  0
LINE
  5
13E
330
1F
100
AcDbEntity
  8
0
100
AcDbLine
 10
30.0
 20
99.01078623256268
 30
-117.5823420266132
 11
-30.0
 21
99.01078623256268
 31
-117.5823420266132
  0
LINE
  5
13F
330
1F
100
AcDbEntity
  8
0
100
AcDbLine
 10
30.0
 20
91.60947246890917
 30
-146.6174599702952
 11
30.0
 21
19.23459520744954
 31
-146.6174599702952
  0
LINE
  5
140
330
1F
100
AcDbEntity
  8
0
100
AcDbLine
 10
30.0
 20
56.62715493161821
 30
-175.4181509797284
 11
30.0
 21
56.62715493161822
 31
-136.5250992930013
  0
LINE
  5
141
330
1F
100
AcDbEntity
  8
0
100
AcDbLine
 10
-30.0
 20
91.60947246890917
 30
-146.6174599702952
 11
-30.0
 21
19.23459459365657
 31
-146.6174599702952
  0
LINE
  5
142
330
1F
100
AcDbEntity
  8
0
100
AcDbLine
 10
-30.0
 20
56.62715493161958
 30
-175.418150979728
 11
-30.0
 21
56.62715493161959
 31
-136.6314070571207
  0
LINE
  5
143
330
1F
100
AcDbEntity
  8
0
100
AcDbLine
 10
-0.0000000000000036
 20
38.35820831858538
 30
-178.2349199405905
 11
-0.0000000000000036
 21
32.77420104476742
 31
-178.2349199405905
  0
LINE
  5
144
330
1F
100
AcDbEntity
  8
0
100
AcDbLine
 10
-30.00000000000001
 20
25.77736631918817
 30
-178.2349199405905
 11
-20.24044564156734
 21
25.77736631918817
 31
-178.2349199405905
  0
LINE
  5
145
330
1F
100
AcDbEntity
  8
0
100
AcDbLine
 10
20.24044564156671
 20
25.77736631918817
 30
-178.2349199405905
 11
30.0
 21
25.77736631918817
 31
-178.2349199405905
  0
ARC
  5
146
330
1F
100
AcDbEntity
  8
0
100
AcDbCircle
 10
0.0
 20
130.0
 30
-57.5
 40
17.50000000000003
100
AcDbArc
 50
270.0
 51
89.99999999999999
  0
LINE
  5
147
330
1F
100
AcDbEntity
  8
0
100
AcDbLine
 10
17.50000000000003
 20
130.0
 30
-115.0
 11
17.50000000000003
 21
130.0
 31
-0.0000000000000036
  0
SPLINE
  5
148
330
1F
100
AcDbEntity
  8
0
100
AcDbSpline
210
0.0
220
0.0
230
1.0
 70
    24
 71
     2
 72
     6
 73
     3
 74
     0
 42
0.000000001
 43
0.0000000001
 40
22.10105149894839
 40
22.10105149894839
 40
22.10105149894839
 40
137.3970207074342
 40
137.3970207074342
 40
137.3970207074342
 10
-217.5
 20
-177.5508687245666
 30
0.0000000000000355
 10
-200.0
 20
-165.0036952636652
 30
-50.43851076647589
 10
-182.4999999999999
 20
-152.4565218027639
 30
-100.8770215329518
  0
SPLINE
  5
149
330
1F
100
AcDbEntity
  8
0
100
AcDbSpline
210
0.0
220
0.0
230
1.0
 70
    24
 71
     2
 72
     6
 73
     3
 74
     0
 42
0.000000001
 43
0.0000000001
 40
22.10105149894839
 40
22.10105149894839
 40
22.10105149894839
 40
137.3970207074342
 40
137.3970207074342
 40
137.3970207074342
 10
-217.4999999999999
 20
-12.44912486977549
 30
0.0000000000000284
 10
-199.9999999999999
 20
-9.996304265714473
 30
-50.43851076647588
 10
-182.5
 20
-7.543483661653458
 30
-100.8770215329518
  0
SPLINE
  5
14A
330
1F
100
AcDbEntity
  8
0
100
AcDbSpline
210
0.0
220
0.0
230
1.0
 70
    24
 71
     2
 72
     6
 73
     3
 74
     0
 42
0.000000001
 43
0.0000000001
 40
22.10105149894839
 40
22.10105149894839
 40
22.10105149894839
 40
137.3970207074342
 40
137.3970207074342
 40
137.3970207074342
 10
-217.5
 20
69.99999999556084
 30
0.0000000000000178
 10
-200.0
 20
67.50000032669462
 30
-50.43851076647591
 10
-182.5000000000001
 20
65.0000006578284
 30
-100.8770215329518
  0
SPLINE
  5
14B
330
1F
100
AcDbEntity
  8
0
100
AcDbSpline
210
0.0
220
0.0
230
1.0
 70
    24
 71
     2
 72
     6
 73
     3
 74
     0
 42
0.000000001
 43
0.0000000001
 40
22.10105149894839
 40
22.10105149894839
 40
22.10105149894839
 40
137.3970207074342
 40
137.3970207074342
 40
137.3970207074342
 10
-217.1043387173328
 20
71.94891289808997
 30
0.000000000000032
 10
-199.6165988133381
 20
69.41470698384944
 30
-50.45546404049557
 10
-182.1288589093434
 20
66.88050106960891
 30
-100.9109280809912
  0
SPLINE
  5
14C
330
1F
100
AcDbEntity
  8
0
100
AcDbSpline
210
0.0
220
0.0
230
1.0
 70
    24
 71
     2
 72
     6
 73
     3
 74
     0
 42
0.000000001
 43
0.0000000001
 40
22.10105149894839
 40
22.10105149894839
 40
22.10105149894839
 40
137.3970207074342
 40
137.3970207074342
 40
137.3970207074342
 10
-216.0507279207521
 20
73.52034583479967
 30
0.0000000000000213
 10
-198.5319004230032
 20
71.0393850031231
 30
-50.50618568951442
 10
-181.0130729252543
 20
68.55842417144655
 30
-101.0123713790289
  0
SPLINE
  5
14D
330
1F
100
AcDbEntity
  8
0
100
AcDbSpline
210
0.0
220
0.0
230
1.0
 70
    24
 71
     2
 72
     6
 73
     3
 74
     0
 42
0.000000001
 43
0.0000000001
 40
22.10105149894839
 40
22.10105149894839
 40
22.10105149894839
 40
137.3970207074342
 40
137.3970207074342
 40
137.3970207074342
 10
-214.4799174633701
 20
74.59104860131086
 30
0.0000000000000355
 10
-196.9091996504211
 20
72.1186001898302
 30
-50.58171990598336
 10
-179.338481837472
 20
69.64615177834955
 30
-101.1634398119668
  0
SPLINE
  5
14E
330
1F
100
AcDbEntity
  8
0
100
AcDbSpline
210
0.0
220
0.0
230
1.0
 70
    24
 71
     2
 72
     6
 73
     3
 74
     0
 42
0.000000001
 43
0.0000000001
 40
22.10105149894839
 40
22.10105149894839
 40
22.10105149894839
 40
137.3970207074342
 40
137.3970207074342
 40
137.3970207074342
 10
-212.4999999954272
 20
75.00000000000004
 30
0.0000000000000391
 10
-195.0000003191767
 20
72.50000000000003
 30
-50.66385977248036
 10
-177.5000006429262
 20
70.0
 30
-101.3277195449608
  0
SPLINE
  5
14F
330
1F
100
AcDbEntity
  8
0
100
AcDbSpline
210
0.0
220
0.0
230
1.0
 70
    24
 71
     2
 72
     6
 73
     3
 74
     0
 42
0.000000001
 43
0.0000000001
 40
22.10105149894839
 40
22.10105149894839
 40
22.10105149894839
 40
137.3970207074342
 40
137.3970207074342
 40
137.3970207074342
 10
-106.3205178626636
 20
75.00000000000006
 30
0.0000000000000355
 10
-97.54878447607973
 20
72.49999999999999
 30
-53.61683981344966
 10
-88.77705108949593
 20
69.99999999999991
 30
-107.2336796268994
  0
SPLINE
  5
150
330
1F
100
AcDbEntity
  8
0
100
AcDbSpline
210
0.0
220
0.0
230
1.0
 70
    24
 71
     2
 72
     6
 73
     3
 74
     0
 42
0.000000001
 43
0.0000000001
 40
22.10105149894839
 40
22.10105149894839
 40
22.10105149894839
 40
137.3970207074342
 40
137.3970207074342
 40
137.3970207074342
 10
-0.0000044059423308
 20
74.99999999999993
 30
0.0000000000000284
 10
-0.0000003298640569
 20
72.5
 30
-54.60004000485954
 10
0.0000037462142171
 20
70.00000000000009
 30
-109.2000800097191
  0
SPLINE
  5
151
330
1F
100
AcDbEntity
  8
0
100
AcDbSpline
210
0.0
220
0.0
230
1.0
 70
    24
 71
     2
 72
     6
 73
     3
 74
     0
 42
0.000000001
 43
0.0000000001
 40
22.10105149894839
 40
22.10105149894839
 40
22.10105149894839
 40
137.3970207074342
 40
137.3970207074342
 40
137.3970207074342
 10
106.3205112610205
 20
75.00000000000001
 30
0.0000000000000249
 10
97.54878398533012
 20
72.49999999999997
 30
-53.61683968891225
 10
88.77705670963978
 20
69.99999999999991
 30
-107.2336793778245
  0
SPLINE
  5
152
330
1F
100
AcDbEntity
  8
0
100
AcDbSpline
210
0.0
220
0.0
230
1.0
 70
    24
 71
     2
 72
     6
 73
     3
 74
     0
 42
0.000000001
 43
0.0000000001
 40
22.10105149894839
 40
22.10105149894839
 40
22.10105149894839
 40
137.3970207074342
 40
137.3970207074342
 40
137.3970207074342
 10
212.4999999954272
 20
75.0
 30
0.0000000000000284
 10
195.0000003585729
 20
72.50000000000003
 30
-50.6638597689789
 10
177.5000007217186
 20
70.00000000000004
 30
-101.3277195379578
  0
SPLINE
  5
153
330
1F
100
AcDbEntity
  8
0
100
AcDbSpline
210
0.0
220
0.0
230
1.0
 70
    24
 71
     2
 72
     6
 73
     3
 74
     0
 42
0.000000001
 43
0.0000000001
 40
22.10105149894839
 40
22.10105149894839
 40
22.10105149894839
 40
137.3970207074342
 40
137.3970207074342
 40
137.3970207074342
 10
214.4799150407027
 20
74.59104967945144
 30
0.0000000000000249
 10
196.9091587883895
 20
72.11839172371053
 30
-50.58172300631986
 10
179.3384025360764
 20
69.64573376796962
 30
-101.1634460126397
  0
SPLINE
  5
154
330
1F
100
AcDbEntity
  8
0
100
AcDbSpline
210
0.0
220
0.0
230
1.0
 70
    24
 71
     2
 72
     6
 73
     3
 74
     0
 42
0.000000001
 43
0.0000000001
 40
22.10105149894839
 40
22.10105149894839
 40
22.10105149894839
 40
137.3970207074342
 40
137.3970207074342
 40
137.3970207074342
 10
216.0507279890359
 20
73.52034574905565
 30
0.0000000000000284
 10
198.5319431822582
 20
71.03933344943552
 30
-50.50618178369963
 10
181.0131583754805
 20
68.55832114981538
 30
-101.0123635673993
  0
SPLINE
  5
155
330
1F
100
AcDbEntity
  8
0
100
AcDbSpline
210
0.0
220
0.0
230
1.0
 70
    24
 71
     2
 72
     6
 73
     3
 74
     0
 42
0.000000001
 43
0.0000000001
 40
22.10105149894839
 40
22.10105149894839
 40
22.10105149894839
 40
137.3970207074342
 40
137.3970207074342
 40
137.3970207074342
 10
217.104339816437
 20
71.94891037403076
 30
0.0000000000000178
 10
199.6167397660969
 20
69.41471833831626
 30
-50.45545123440595
 10
182.1291397157567
 20
66.88052630260177
 30
-100.9109024688119
  0
ARC
  5
156
330
1F
100
AcDbEntity
  8
0
100
AcDbCircle
 10
0.0
 20
0.0
 30
111.9658126263485
 40
32.80947255979862
210
0.0
220
-6.123233995736757E-17
230
-1.0
100
AcDbArc
 50
90.0
 51
270.0
  0
LINE
  5
157
330
1F
100
AcDbEntity
  8
0
100
AcDbLine
 10
32.80947255979862
 20
-0.0000000000000067
 30
-108.9316325026133
 11
32.80947255979862
 21
-0.000000000000007
 31
-115.0
  0
LINE
  5
158
330
1F
100
AcDbEntity
  8
0
100
AcDbLine
 10
0.0
 20
32.80947255979861
 30
-115.0
 11
0.0
 21
21.99999999999999
 31
-115.0
  0
LINE
  5
159
330
1F
100
AcDbEntity
  8
0
100
AcDbLine
 10
0.0
 20
-22.00000000000001
 30
-115.0
 11
0.0
 21
-32.80947255979863
 31
-115.0
  0
LINE
  5
15A
330
1F
100
AcDbEntity
  8
0
100
AcDbLine
 10
-32.80947255979862
 20
-0.000000000000007
 30
-115.0
 11
-22.0
 21
-0.000000000000007
 31
-115.0
  0
LINE
  5
15B
330
1F
100
AcDbEntity
  8
0
100
AcDbLine
 10
22.0
 20
-0.000000000000007
 30
-115.0
 11
32.80947255979862
 21
-0.000000000000007
 31
-115.0
  0
ENDSEC
  0
SECTION
  2
OBJECTS
  0
DICTIONARY
  5
C
330
0
100
AcDbDictionary
281
     1
  3
ACAD_DETAILVIEWSTYLE
350
197
  3
ACAD_GROUP
350
D
  3
ACAD_LAYOUT
350
1A
  3
ACAD_MATERIAL
350
43
  3
ACAD_MLEADERSTYLE
350
6B
  3
ACAD_MLINESTYLE
350
17
  3
ACAD_PLOTSETTINGS
350
19
  3
ACAD_PLOTSTYLENAME
350
E
  3
ACAD_SCALELIST
350
47
  3
ACAD_SECTIONVIEWSTYLE
350
198
  3
ACAD_TABLESTYLE
350
69
  3
ACAD_VISUALSTYLE
350
2A
  3
ACDB_RECOMPOSE_DATA
350
194
  3
AcDbVariableDictionary
350
15C
  0
SUN
  5
6D
330
29
100
AcDbSun
 90
        1
290
     0
 63
     7
421
 16777215
 40
1.0
291
     1
 91
  2455826
 92
 54000000
292
     0
 70
     2
 71
   256
280
     1
  0
DICTIONARY
  5
197
102
{ACAD_REACTORS
330
C
102
}
330
C
100
AcDbDictionary
281
     1
  0
DICTIONARY
  5
D
102
{ACAD_REACTORS
330
C
102
}
330
C
100
AcDbDictionary
281
     1
  0
DICTIONARY
  5
1A
102
{ACAD_REACTORS
330
C
102
}
330
C
100
AcDbDictionary
281
     1
  3
Layout1
350
1E
  3
Layout2
350
26
  3
Model
350
22
  0
DICTIONARY
  5
43
102
{ACAD_REACTORS
330
C
102
}
330
C
100
AcDbDictionary
281
     1
  3
ByBlock
350
45
  3
ByLayer
350
44
  3
Global
350
46
  0
DICTIONARY
  5
6B
102
{ACAD_REACTORS
330
C
102
}
330
C
100
AcDbDictionary
281
     1
  3
Standard
350
6C
  0
DICTIONARY
  5
17
102
{ACAD_REACTORS
330
C
102
}
330
C
100
AcDbDictionary
281
     1
  3
Standard
350
18
  0
DICTIONARY
  5
19
102
{ACAD_REACTORS
330
C
102
}
330
C
100
AcDbDictionary
281
     1
  0
ACDBDICTIONARYWDFLT
  5
E
102
{ACAD_REACTORS
330
C
102
}
330
C
100
AcDbDictionary
281
     1
  3
Normal
350
F
100
AcDbDictionaryWithDefault
340
F
  0
DICTIONARY
  5
47
102
{ACAD_REACTORS
330
C
102
}
330
C
100
AcDbDictionary
281
     1
  3
A0
350
48
  3
A1
350
49
  3
A2
350
4A
  3
A3
350
4B
  3
A4
350
4C
  3
A5
350
4D
  3
A6
350
4E
  3
A7
350
4F
  3
A8
350
50
  3
A9
350
51
  3
B0
350
52
  3
B1
350
53
  3
B2
350
54
  3
B3
350
55
  3
B4
350
56
  3
B5
350
57
  3
B6
350
58
  3
B7
350
59
  3
B8
350
5A
  3
B9
350
5B
  3
C0
350
5C
  3
C1
350
5D
  3
C2
350
5E
  3
C3
350
5F
  3
C4
350
60
  3
C5
350
61
  3
C6
350
62
  3
C7
350
63
  3
C8
350
64
  3
C9
350
65
  3
D0
350
66
  3
D1
350
67
  3
D2
350
68
  0
DICTIONARY
  5
198
102
{ACAD_REACTORS
330
C
102
}
330
C
100
AcDbDictionary
281
     1
  0
DICTIONARY
  5
69
102
{ACAD_REACTORS
330
C
102
}
330
C
100
AcDbDictionary
281
     1
  3
Standard
350
6A
  0
DICTIONARY
  5
2A
102
{ACAD_REACTORS
330
C
102
}
330
C
100
AcDbDictionary
281
     1
  3
2dWireframe
350
2F
  3
Basic
350
32
  3
Brighten
350
36
  3
ColorChange
350
3A
  3
Conceptual
350
34
  3
Dim
350
35
  3
EdgeColorOff
350
3D
  3
Facepattern
350
39
  3
Flat
350
2B
  3
FlatWithEdges
350
2C
  3
Gouraud
350
2D
  3
GouraudWithEdges
350
2E
  3
Hidden
350
31
  3
JitterOff
350
3B
  3
Linepattern
350
38
  3
OverhangOff
350
3C
  3
Realistic
350
33
  3
Shaded
350
42
  3
Shaded with edges
350
41
  3
Shades of Gray
350
3E
  3
Sketchy
350
3F
  3
Thicken
350
37
  3
Wireframe
350
30
  3
X-Ray
350
40
  0
XRECORD
  5
194
102
{ACAD_REACTORS
330
C
102
}
330
C
100
AcDbXrecord
280
     1
 90
        1
330
6A
  0
DICTIONARY
  5
15C
102
{ACAD_REACTORS
330
C
102
}
330
C
100
AcDbDictionary
281
     1
  3
CANNOSCALE
350
15D
  3
CMLEADERSTYLE
350
196
  3
CTABLESTYLE
350
195
  3
XCLIPFRAME
350
15E
  0
LAYOUT
  5
1E
102
{ACAD_REACTORS
330
1A
102
}
330
1A
100
AcDbPlotSettings
  1

  2
none_device
  4

  6

 40
0.0
 41
0.0
 42
0.0
 43
0.0
 44
0.0
 45
0.0
 46
0.0
 47
0.0
 48
0.0
 49
0.0
140
0.0
141
0.0
142
1.0
143
1.0
 70
   688
 72
     0
 73
     0
 74
     5
  7

 75
    16
 76
     0
 77
     2
 78
   300
147
1.0
148
0.0
149
0.0
100
AcDbLayout
  1
Layout1
 70
     1
 71
     1
 10
0.0
 20
0.0
 11
12.0
 21
9.0
 12
0.0
 22
0.0
 32
0.0
 14
1.000000000000000E+20
 24
1.000000000000000E+20
 34
1.000000000000000E+20
 15
-1.000000000000000E+20
 25
-1.000000000000000E+20
 35
-1.000000000000000E+20
146
0.0
 13
0.0
 23
0.0
 33
0.0
 16
1.0
 26
0.0
 36
0.0
 17
0.0
 27
1.0
 37
0.0
 76
     0
330
1B
  0
LAYOUT
  5
26
102
{ACAD_REACTORS
330
1A
102
}
330
1A
100
AcDbPlotSettings
  1

  2
none_device
  4

  6

 40
0.0
 41
0.0
 42
0.0
 43
0.0
 44
0.0
 45
0.0
 46
0.0
 47
0.0
 48
0.0
 49
0.0
140
0.0
141
0.0
142
1.0
143
1.0
 70
   688
 72
     0
 73
     0
 74
     5
  7

 75
    16
 76
     0
 77
     2
 78
   300
147
1.0
148
0.0
149
0.0
100
AcDbLayout
  1
Layout2
 70
     1
 71
     2
 10
0.0
 20
0.0
 11
0.0
 21
0.0
 12
0.0
 22
0.0
 32
0.0
 14
0.0
 24
0.0
 34
0.0
 15
0.0
 25
0.0
 35
0.0
146
0.0
 13
0.0
 23
0.0
 33
0.0
 16
1.0
 26
0.0
 36
0.0
 17
0.0
 27
1.0
 37
0.0
 76
     0
330
23
  0
LAYOUT
  5
22
102
{ACAD_REACTORS
330
1A
102
}
330
1A
100
AcDbPlotSettings
  1

  2
none_device
  4
Letter_(8.50_x_11.00_Inches)
  6

 40
6.35
 41
6.35
 42
6.35000508
 43
6.35000508
 44
215.9
 45
279.4
 46
0.0
 47
0.0
 48
0.0
 49
0.0
140
0.0
141
0.0
142
1.0
143
1.0
 70
  1712
 72
     0
 73
     0
 74
     0
  7

 75
     0
 76
     0
 77
     2
 78
   300
147
1.0
148
0.0
149
0.0
100
AcDbLayout
  1
Model
 70
     1
 71
     0
 10
0.0
 20
0.0
 11
12.0
 21
9.0
 12
0.0
 22
0.0
 32
0.0
 14
1.000000000000000E+20
 24
1.000000000000000E+20
 34
1.000000000000000E+20
 15
-1.000000000000000E+20
 25
-1.000000000000000E+20
 35
-1.000000000000000E+20
146
0.0
 13
0.0
 23
0.0
 33
0.0
 16
1.0
 26
0.0
 36
0.0
 17
0.0
 27
1.0
 37
0.0
 76
     0
330
1F
331
29
  0
MATERIAL
  5
45
102
{ACAD_REACTORS
330
43
102
}
330
43
100
AcDbMaterial
  1
ByBlock
 72
     1
 94
      127
  0
MATERIAL
  5
44
102
{ACAD_REACTORS
330
43
102
}
330
43
100
AcDbMaterial
  1
ByLayer
 72
     1
 94
      127
  0
MATERIAL
  5
46
102
{ACAD_REACTORS
330
43
102
}
330
43
100
AcDbMaterial
  1
Global
 72
     1
 94
      127
  0
MLEADERSTYLE
  5
6C
102
{ACAD_REACTORS
330
6B
102
}
102
{ACAD_XDICTIONARY
360
192
102
}
330
6B
100
AcDbMLeaderStyle
170
     2
171
     1
172
     0
 90
        2
 40
0.0
 41
0.0
173
     1
 91
-1056964608
340
14
 92
       -2
290
     1
 42
0.09
291
     1
 43
0.36
  3
Standard
341
0
 44
0.18
300

342
11
174
     1
178
     6
175
     1
176
     0
 93
-1056964608
 45
0.18
292
     0
297
     0
 46
0.18
343
0
 94
-1056964608
 47
1.0
 49
1.0
140
1.0
293
     1
141
0.0
294
     1
177
     0
142
1.0
295
     0
296
     0
143
0.125
1001
ACAD_MLEADERVER
1070
     2
  0
MLINESTYLE
  5
18
102
{ACAD_REACTORS
330
17
102
}
330
17
100
AcDbMlineStyle
  2
Standard
 70
     0
  3

 62
   256
 51
90.0
 52
90.0
 71
     2
 49
0.5
 62
   256
  6
BYLAYER
 49
-0.5
 62
   256
  6
BYLAYER
  0
ACDBPLACEHOLDER
  5
F
102
{ACAD_REACTORS
330
E
102
}
330
E
  0
SCALE
  5
48
102
{ACAD_REACTORS
330
47
102
}
330
47
100
AcDbScale
 70
     0
300
1:1
140
1.0
141
1.0
290
     1
  0
SCALE
  5
49
102
{ACAD_REACTORS
330
47
102
}
330
47
100
AcDbScale
 70
     0
300
1:2
140
1.0
141
2.0
290
     0
  0
SCALE
  5
4A
102
{ACAD_REACTORS
330
47
102
}
330
47
100
AcDbScale
 70
     0
300
1:4
140
1.0
141
4.0
290
     0
  0
SCALE
  5
4B
102
{ACAD_REACTORS
330
47
102
}
330
47
100
AcDbScale
 70
     0
300
1:5
140
1.0
141
5.0
290
     0
  0
SCALE
  5
4C
102
{ACAD_REACTORS
330
47
102
}
330
47
100
AcDbScale
 70
     0
300
1:8
140
1.0
141
8.0
290
     0
  0
SCALE
  5
4D
102
{ACAD_REACTORS
330
47
102
}
330
47
100
AcDbScale
 70
     0
300
1:10
140
1.0
141
10.0
290
     0
  0
SCALE
  5
4E
102
{ACAD_REACTORS
330
47
102
}
330
47
100
AcDbScale
 70
     0
300
1:16
140
1.0
141
16.0
290
     0
  0
SCALE
  5
4F
102
{ACAD_REACTORS
330
47
102
}
330
47
100
AcDbScale
 70
     0
300
1:20
140
1.0
141
20.0
290
     0
  0
SCALE
  5
50
102
{ACAD_REACTORS
330
47
102
}
330
47
100
AcDbScale
 70
     0
300
1:30
140
1.0
141
30.0
290
     0
  0
SCALE
  5
51
102
{ACAD_REACTORS
330
47
102
}
330
47
100
AcDbScale
 70
     0
300
1:40
140
1.0
141
40.0
290
     0
  0
SCALE
  5
52
102
{ACAD_REACTORS
330
47
102
}
330
47
100
AcDbScale
 70
     0
300
1:50
140
1.0
141
50.0
290
     0
  0
SCALE
  5
53
102
{ACAD_REACTORS
330
47
102
}
330
47
100
AcDbScale
 70
     0
300
1:100
140
1.0
141
100.0
290
     0
  0
SCALE
  5
54
102
{ACAD_REACTORS
330
47
102
}
330
47
100
AcDbScale
 70
     0
300
2:1
140
2.0
141
1.0
290
     0
  0
SCALE
  5
55
102
{ACAD_REACTORS
330
47
102
}
330
47
100
AcDbScale
 70
     0
300
4:1
140
4.0
141
1.0
290
     0
  0
SCALE
  5
56
102
{ACAD_REACTORS
330
47
102
}
330
47
100
AcDbScale
 70
     0
300
8:1
140
8.0
141
1.0
290
     0
  0
SCALE
  5
57
102
{ACAD_REACTORS
330
47
102
}
330
47
100
AcDbScale
 70
     0
300
10:1
140
10.0
141
1.0
290
     0
  0
SCALE
  5
58
102
{ACAD_REACTORS
330
47
102
}
330
47
100
AcDbScale
 70
     0
300
100:1
140
100.0
141
1.0
290
     0
  0
SCALE
  5
59
102
{ACAD_REACTORS
330
47
102
}
330
47
100
AcDbScale
 70
     0
300
1/128" = 1'-0"
140
0.0078125
141
12.0
290
     0
  0
SCALE
  5
5A
102
{ACAD_REACTORS
330
47
102
}
330
47
100
AcDbScale
 70
     0
300
1/64" = 1'-0"
140
0.015625
141
12.0
290
     0
  0
SCALE
  5
5B
102
{ACAD_REACTORS
330
47
102
}
330
47
100
AcDbScale
 70
     0
300
1/32" = 1'-0"
140
0.03125
141
12.0
290
     0
  0
SCALE
  5
5C
102
{ACAD_REACTORS
330
47
102
}
330
47
100
AcDbScale
 70
     0
300
1/16" = 1'-0"
140
0.0625
141
12.0
290
     0
  0
SCALE
  5
5D
102
{ACAD_REACTORS
330
47
102
}
330
47
100
AcDbScale
 70
     0
300
3/32" = 1'-0"
140
0.09375
141
12.0
290
     0
  0
SCALE
  5
5E
102
{ACAD_REACTORS
330
47
102
}
330
47
100
AcDbScale
 70
     0
300
1/8" = 1'-0"
140
0.125
141
12.0
290
     0
  0
SCALE
  5
5F
102
{ACAD_REACTORS
330
47
102
}
330
47
100
AcDbScale
 70
     0
300
3/16" = 1'-0"
140
0.1875
141
12.0
290
     0
  0
SCALE
  5
60
102
{ACAD_REACTORS
330
47
102
}
330
47
100
AcDbScale
 70
     0
300
1/4" = 1'-0"
140
0.25
141
12.0
290
     0
  0
SCALE
  5
61
102
{ACAD_REACTORS
330
47
102
}
330
47
100
AcDbScale
 70
     0
300
3/8" = 1'-0"
140
0.375
141
12.0
290
     0
  0
SCALE
  5
62
102
{ACAD_REACTORS
330
47
102
}
330
47
100
AcDbScale
 70
     0
300
1/2" = 1'-0"
140
0.5
141
12.0
290
     0
  0
SCALE
  5
63
102
{ACAD_REACTORS
330
47
102
}
330
47
100
AcDbScale
 70
     0
300
3/4" = 1'-0"
140
0.75
141
12.0
290
     0
  0
SCALE
  5
64
102
{ACAD_REACTORS
330
47
102
}
330
47
100
AcDbScale
 70
     0
300
1" = 1'-0"
140
1.0
141
12.0
290
     0
  0
SCALE
  5
65
102
{ACAD_REACTORS
330
47
102
}
330
47
100
AcDbScale
 70
     0
300
1-1/2" = 1'-0"
140
1.5
141
12.0
290
     0
  0
SCALE
  5
66
102
{ACAD_REACTORS
330
47
102
}
330
47
100
AcDbScale
 70
     0
300
3" = 1'-0"
140
3.0
141
12.0
290
     0
  0
SCALE
  5
67
102
{ACAD_REACTORS
330
47
102
}
330
47
100
AcDbScale
 70
     0
300
6" = 1'-0"
140
6.0
141
12.0
290
     0
  0
SCALE
  5
68
102
{ACAD_REACTORS
330
47
102
}
330
47
100
AcDbScale
 70
     0
300
1'-0" = 1'-0"
140
12.0
141
12.0
290
     0
  0
TABLESTYLE
  5
6A
102
{ACAD_REACTORS
330
69
102
}
102
{ACAD_XDICTIONARY
360
18F
102
}
330
69
100
AcDbTableStyle
  3
Standard
 70
     0
 71
     0
 40
0.06
 41
0.06
280
     0
281
     0
  7
Standard
140
0.18
170
     2
 62
     0
 63
   257
283
     0
 90
        4
 91
        0
  1

274
    -2
284
     1
 64
     0
275
    -2
285
     1
 65
     0
276
    -2
286
     1
 66
     0
277
    -2
287
     1
 67
     0
278
    -2
288
     1
 68
     0
279
    -2
289
     1
 69
     0
  7
Standard
140
0.25
170
     5
 62
     0
 63
   257
283
     0
 90
        4
 91
        0
  1

274
    -2
284
     1
 64
     0
275
    -2
285
     1
 65
     0
276
    -2
286
     1
 66
     0
277
    -2
287
     1
 67
     0
278
    -2
288
     1
 68
     0
279
    -2
289
     1
 69
     0
  7
Standard
140
0.18
170
     5
 62
     0
 63
   257
283
     0
 90
        4
 91
        0
  1

274
    -2
284
     1
 64
     0
275
    -2
285
     1
 65
     0
276
    -2
286
     1
 66
     0
277
    -2
287
     1
 67
     0
278
    -2
288
     1
 68
     0
279
    -2
289
     1
 69
     0
  0
VISUALSTYLE
  5
2F
102
{ACAD_REACTORS
330
2A
102
}
102
{ACAD_XDICTIONARY
360
167
102
}
330
2A
100
AcDbVisualStyle
  2
2dWireframe
 70
     4
 71
     0
 72
     2
 73
     0
 90
        0
 40
0.6
 41
30.0
 62
     5
 63
     7
421
 16777215
 74
     1
 91
        4
 64
     7
 65
   257
 75
     1
175
     1
 42
1.0
 92
        0
 66
   257
 43
1.0
 76
     1
 77
     6
 78
     2
 67
     7
 79
     5
170
     0
171
     0
290
     0
174
     0
 93
        1
 44
0.0
173
     0
291
     0
 45
0.0
  0
VISUALSTYLE
  5
32
102
{ACAD_REACTORS
330
2A
102
}
102
{ACAD_XDICTIONARY
360
16D
102
}
330
2A
100
AcDbVisualStyle
  2
Basic
 70
     7
 71
     1
 72
     0
 73
     1
 90
        0
 40
0.6
 41
30.0
 62
     5
 63
     7
421
 16777215
 74
     0
 91
        4
 64
     7
 65
   257
 75
     1
175
     1
 42
1.0
 92
        8
 66
     7
 43
1.0
 76
     1
 77
     6
 78
     2
 67
     7
 79
     5
170
     0
171
     0
290
     0
174
     0
 93
        1
 44
0.0
173
     0
291
     1
 45
0.0
  0
VISUALSTYLE
  5
36
102
{ACAD_REACTORS
330
2A
102
}
102
{ACAD_XDICTIONARY
360
175
102
}
330
2A
100
AcDbVisualStyle
  2
Brighten
 70
    12
 71
     2
 72
     2
 73
     0
 90
        0
 40
0.6
 41
30.0
 62
     5
 63
     7
421
 16777215
 74
     1
 91
        4
 64
     7
 65
   257
 75
     1
175
     1
 42
1.0
 92
        8
 66
     7
 43
1.0
 76
     1
 77
     6
 78
     2
 67
     7
 79
     5
170
     0
171
     0
290
     0
174
     0
 93
        1
 44
50.0
173
     0
291
     1
 45
0.0
  0
VISUALSTYLE
  5
3A
102
{ACAD_REACTORS
330
2A
102
}
102
{ACAD_XDICTIONARY
360
17D
102
}
330
2A
100
AcDbVisualStyle
  2
ColorChange
 70
    16
 71
     2
 72
     2
 73
     3
 90
        0
 40
0.6
 41
30.0
 62
     5
 63
     8
421
  8421504
 74
     1
 91
        4
 64
     7
 65
   257
 75
     1
175
     1
 42
1.0
 92
        8
 66
     8
424
  8421504
 43
1.0
 76
     1
 77
     6
 78
     2
 67
     7
 79
     5
170
     0
171
     0
290
     0
174
     0
 93
        1
 44
0.0
173
     0
291
     1
 45
0.0
  0
VISUALSTYLE
  5
34
102
{ACAD_REACTORS
330
2A
102
}
102
{ACAD_XDICTIONARY
360
171
102
}
330
2A
100
AcDbVisualStyle
  2
Conceptual
 70
     9
 71
     3
 72
     2
 73
     0
 90
        0
 40
0.6
 41
30.0
 62
     5
 63
     7
421
 16777215
 74
     2
 91
        2
 64
     7
 65
   257
 75
     1
175
     1
 42
179.0
 92
        8
 66
     7
 43
1.0
 76
     1
 77
     6
 78
     2
 67
     7
 79
     3
170
     0
171
     0
290
     0
174
     0
 93
        1
 44
0.0
173
     0
291
     0
 45
0.0
  0
VISUALSTYLE
  5
35
102
{ACAD_REACTORS
330
2A
102
}
102
{ACAD_XDICTIONARY
360
173
102
}
330
2A
100
AcDbVisualStyle
  2
Dim
 70
    11
 71
     2
 72
     2
 73
     0
 90
        0
 40
0.6
 41
30.0
 62
     5
 63
     7
421
 16777215
 74
     1
 91
        4
 64
     7
 65
   257
 75
     1
175
     1
 42
1.0
 92
        8
 66
     7
 43
1.0
 76
     1
 77
     6
 78
     2
 67
     7
 79
     5
170
     0
171
     0
290
     0
174
     0
 93
        1
 44
-50.0
173
     0
291
     1
 45
0.0
  0
VISUALSTYLE
  5
3D
102
{ACAD_REACTORS
330
2A
102
}
102
{ACAD_XDICTIONARY
360
183
102
}
330
2A
100
AcDbVisualStyle
  2
EdgeColorOff
 70
    22
 71
     2
 72
     2
 73
     0
 90
        0
 40
0.6
 41
30.0
 62
     5
 63
     7
421
 16777215
 74
     1
 91
        4
 64
     7
 65
   257
 75
     1
175
     1
 42
1.0
 92
        8
 66
     7
 43
1.0
 76
     1
 77
     6
 78
     2
 67
     7
 79
     5
170
     0
171
     0
290
     0
174
     0
 93
        1
 44
0.0
173
     0
291
     1
 45
0.0
  0
VISUALSTYLE
  5
39
102
{ACAD_REACTORS
330
2A
102
}
102
{ACAD_XDICTIONARY
360
17B
102
}
330
2A
100
AcDbVisualStyle
  2
Facepattern
 70
    15
 71
     2
 72
     2
 73
     0
 90
        0
 40
0.6
 41
30.0
 62
     5
 63
     7
421
 16777215
 74
     1
 91
        4
 64
     7
 65
   257
 75
     1
175
     1
 42
1.0
 92
        8
 66
     7
 43
1.0
 76
     1
 77
     6
 78
     2
 67
     7
 79
     5
170
     0
171
     0
290
     0
174
     0
 93
        1
 44
0.0
173
     0
291
     1
 45
0.0
  0
VISUALSTYLE
  5
2B
102
{ACAD_REACTORS
330
2A
102
}
102
{ACAD_XDICTIONARY
360
15F
102
}
330
2A
100
AcDbVisualStyle
  2
Flat
 70
     0
 71
     2
 72
     1
 73
     1
 90
        2
 40
0.6
 41
30.0
 62
     5
 63
     7
421
 16777215
 74
     0
 91
        0
 64
     7
 65
   257
 75
     1
175
     1
 42
1.0
 92
        8
 66
     7
 43
1.0
 76
     1
 77
     6
 78
     2
 67
     7
 79
     5
170
     0
171
     0
290
     0
174
     0
 93
       13
 44
0.0
173
     0
291
     1
 45
0.0
  0
VISUALSTYLE
  5
2C
102
{ACAD_REACTORS
330
2A
102
}
102
{ACAD_XDICTIONARY
360
161
102
}
330
2A
100
AcDbVisualStyle
  2
FlatWithEdges
 70
     1
 71
     2
 72
     1
 73
     1
 90
        2
 40
0.6
 41
30.0
 62
     5
 63
     7
421
 16777215
 74
     1
 91
        0
 64
     7
 65
   257
 75
     1
175
     1
 42
1.0
 92
        0
 66
   257
 43
1.0
 76
     1
 77
     6
 78
     2
 67
     7
 79
     5
170
     0
171
     0
290
     0
174
     0
 93
       13
 44
0.0
173
     0
291
     1
 45
0.0
  0
VISUALSTYLE
  5
2D
102
{ACAD_REACTORS
330
2A
102
}
102
{ACAD_XDICTIONARY
360
163
102
}
330
2A
100
AcDbVisualStyle
  2
Gouraud
 70
     2
 71
     2
 72
     2
 73
     1
 90
        2
 40
0.6
 41
30.0
 62
     5
 63
     7
421
 16777215
 74
     0
 91
        0
 64
     7
 65
   257
 75
     1
175
     1
 42
1.0
 92
        0
 66
     7
 43
1.0
 76
     1
 77
     6
 78
     2
 67
     7
 79
     5
170
     0
171
     0
290
     0
174
     0
 93
       13
 44
0.0
173
     0
291
     1
 45
0.0
  0
VISUALSTYLE
  5
2E
102
{ACAD_REACTORS
330
2A
102
}
102
{ACAD_XDICTIONARY
360
165
102
}
330
2A
100
AcDbVisualStyle
  2
GouraudWithEdges
 70
     3
 71
     2
 72
     2
 73
     1
 90
        2
 40
0.6
 41
30.0
 62
     5
 63
     7
421
 16777215
 74
     1
 91
        0
 64
     7
 65
   257
 75
     1
175
     1
 42
1.0
 92
        0
 66
   257
 43
1.0
 76
     1
 77
     6
 78
     2
 67
     7
 79
     5
170
     0
171
     0
290
     0
174
     0
 93
       13
 44
0.0
173
     0
291
     1
 45
0.0
  0
VISUALSTYLE
  5
31
102
{ACAD_REACTORS
330
2A
102
}
102
{ACAD_XDICTIONARY
360
16B
102
}
330
2A
100
AcDbVisualStyle
  2
Hidden
 70
     6
 71
     1
 72
     2
 73
     2
 90
        0
 40
0.6
 41
30.0
 62
     5
 63
     7
421
 16777215
 74
     2
 91
        2
 64
     7
 65
   257
 75
     2
175
     1
 42
40.0
 92
        0
 66
   257
 43
1.0
 76
     1
 77
     6
 78
     2
 67
     7
 79
     3
170
     0
171
     0
290
     0
174
     0
 93
        1
 44
0.0
173
     0
291
     0
 45
0.0
  0
VISUALSTYLE
  5
3B
102
{ACAD_REACTORS
330
2A
102
}
102
{ACAD_XDICTIONARY
360
17F
102
}
330
2A
100
AcDbVisualStyle
  2
JitterOff
 70
    20
 71
     2
 72
     2
 73
     0
 90
        0
 40
0.6
 41
30.0
 62
     5
 63
     7
421
 16777215
 74
     1
 91
        4
 64
     7
 65
   257
 75
     1
175
     1
 42
1.0
 92
       10
 66
     7
 43
1.0
 76
     1
 77
     6
 78
     2
 67
     7
 79
     5
170
     0
171
     0
290
     0
174
     0
 93
        1
 44
0.0
173
     0
291
     1
 45
0.0
  0
VISUALSTYLE
  5
38
102
{ACAD_REACTORS
330
2A
102
}
102
{ACAD_XDICTIONARY
360
179
102
}
330
2A
100
AcDbVisualStyle
  2
Linepattern
 70
    14
 71
     2
 72
     2
 73
     0
 90
        0
 40
0.6
 41
30.0
 62
     5
 63
     7
421
 16777215
 74
     1
 91
        4
 64
     7
 65
   257
 75
     7
175
     7
 42
1.0
 92
        8
 66
     7
 43
1.0
 76
     1
 77
     6
 78
     2
 67
     7
 79
     5
170
     0
171
     0
290
     0
174
     0
 93
        1
 44
0.0
173
     0
291
     1
 45
0.0
  0
VISUALSTYLE
  5
3C
102
{ACAD_REACTORS
330
2A
102
}
102
{ACAD_XDICTIONARY
360
181
102
}
330
2A
100
AcDbVisualStyle
  2
OverhangOff
 70
    21
 71
     2
 72
     2
 73
     0
 90
        0
 40
0.6
 41
30.0
 62
     5
 63
     7
421
 16777215
 74
     1
 91
        4
 64
     7
 65
   257
 75
     1
175
     1
 42
1.0
 92
        9
 66
     7
 43
1.0
 76
     1
 77
     6
 78
     2
 67
     7
 79
     5
170
     0
171
     0
290
     0
174
     0
 93
        1
 44
0.0
173
     0
291
     1
 45
0.0
  0
VISUALSTYLE
  5
33
102
{ACAD_REACTORS
330
2A
102
}
102
{ACAD_XDICTIONARY
360
16F
102
}
330
2A
100
AcDbVisualStyle
  2
Realistic
 70
     8
 71
     2
 72
     3
 73
     0
 90
        2
 40
0.6
 41
30.0
 62
     5
 63
     7
421
 16777215
 74
     0
 91
        0
 64
     7
 65
   257
 75
     1
175
     1
 42
1.0
 92
        8
 66
   257
 43
1.0
 76
     1
 77
     6
 78
     2
 67
     7
 79
     3
170
     0
171
     0
290
     0
174
     0
 93
       13
 44
0.0
173
     0
291
     0
 45
0.0
  0
VISUALSTYLE
  5
42
102
{ACAD_REACTORS
330
2A
102
}
102
{ACAD_XDICTIONARY
360
18D
102
}
330
2A
100
AcDbVisualStyle
  2
Shaded
 70
    27
 71
     2
 72
     2
 73
     1
 90
        2
 40
0.6
 41
30.0
 62
     5
 63
     7
421
 16777215
 74
     0
 91
        4
 64
     7
 65
   257
 75
     1
175
     1
 42
1.0
 92
        8
 66
   257
 43
1.0
 76
     1
 77
     6
 78
     2
 67
     8
425
  7895160
 79
     3
170
     0
171
     0
290
     0
174
     0
 93
        5
 44
0.0
173
     0
291
     0
 45
0.0
  0
VISUALSTYLE
  5
41
102
{ACAD_REACTORS
330
2A
102
}
102
{ACAD_XDICTIONARY
360
18B
102
}
330
2A
100
AcDbVisualStyle
  2
Shaded with edges
 70
    26
 71
     2
 72
     2
 73
     1
 90
        2
 40
0.6
 41
30.0
 62
     5
 63
     7
421
 16777215
 74
     1
 91
       10
 64
     7
 65
   257
 75
     2
175
     1
 42
1.0
 92
        8
 66
   257
 43
1.0
 76
     1
 77
     6
 78
     2
 67
     7
 79
     3
170
     0
171
     0
290
     0
174
     0
 93
        5
 44
0.0
173
     0
291
     0
 45
0.0
  0
VISUALSTYLE
  5
3E
102
{ACAD_REACTORS
330
2A
102
}
102
{ACAD_XDICTIONARY
360
185
102
}
330
2A
100
AcDbVisualStyle
  2
Shades of Gray
 70
    23
 71
     2
 72
     2
 73
     3
 90
        0
 40
0.6
 41
30.0
 62
     5
 63
     7
421
 16777215
 74
     2
 91
        2
 64
     7
 65
     7
 75
     1
175
     1
 42
40.0
 92
        8
 66
     7
 43
1.0
 76
     1
 77
     6
 78
     2
 67
     7
 79
     3
170
     0
171
     0
290
     0
174
     0
 93
        1
 44
0.0
173
     0
291
     0
 45
0.0
  0
VISUALSTYLE
  5
3F
102
{ACAD_REACTORS
330
2A
102
}
102
{ACAD_XDICTIONARY
360
187
102
}
330
2A
100
AcDbVisualStyle
  2
Sketchy
 70
    24
 71
     1
 72
     2
 73
     2
 90
        0
 40
0.6
 41
30.0
 62
     5
 63
     7
421
 16777215
 74
     2
 91
        2
 64
     7
 65
     7
 75
     1
175
     1
 42
40.0
 92
       11
 66
     7
 43
1.0
 76
     1
 77
     6
 78
     2
 67
     7
 79
     6
170
     0
171
     0
290
     0
174
     0
 93
        1
 44
0.0
173
     0
291
     0
 45
0.0
  0
VISUALSTYLE
  5
37
102
{ACAD_REACTORS
330
2A
102
}
102
{ACAD_XDICTIONARY
360
177
102
}
330
2A
100
AcDbVisualStyle
  2
Thicken
 70
    13
 71
     2
 72
     2
 73
     0
 90
        0
 40
0.6
 41
30.0
 62
     5
 63
     7
421
 16777215
 74
     1
 91
        4
 64
     7
 65
   257
 75
     1
175
     1
 42
1.0
 92
       12
 66
     7
 43
1.0
 76
     1
 77
     6
 78
     2
 67
     7
 79
     5
170
     0
171
     0
290
     0
174
     0
 93
        1
 44
0.0
173
     0
291
     1
 45
0.0
  0
VISUALSTYLE
  5
30
102
{ACAD_REACTORS
330
2A
102
}
102
{ACAD_XDICTIONARY
360
169
102
}
330
2A
100
AcDbVisualStyle
  2
Wireframe
 70
     5
 71
     0
 72
     2
 73
     0
 90
        0
 40
0.6
 41
30.0
 62
     5
 63
     7
421
 16777215
 74
     1
 91
        4
 64
     7
 65
   257
 75
     1
175
     1
 42
1.0
 92
        0
 66
   257
 43
1.0
 76
     1
 77
     6
 78
     2
 67
     7
 79
     3
170
     0
171
     0
290
     0
174
     0
 93
        1
 44
0.0
173
     0
291
     0
 45
0.0
  0
VISUALSTYLE
  5
40
102
{ACAD_REACTORS
330
2A
102
}
102
{ACAD_XDICTIONARY
360
189
102
}
330
2A
100
AcDbVisualStyle
  2
X-Ray
 70
    25
 71
     2
 72
     2
 73
     1
 90
        1
 40
0.5
 41
30.0
 62
     5
 63
     7
421
 16777215
 74
     1
 91
        0
 64
     7
 65
   257
 75
     1
175
     1
 42
1.0
 92
        8
 66
     7
 43
1.0
 76
     1
 77
     6
 78
     2
 67
     7
 79
     3
170
     0
171
     0
290
     0
174
     0
 93
       13
 44
0.0
173
     0
291
     0
 45
0.0
  0
DICTIONARYVAR
  5
15D
102
{ACAD_REACTORS
330
15C
102
}
330
15C
100
DictionaryVariables
280
     0
  1
1:1
  0
DICTIONARYVAR
  5
196
102
{ACAD_REACTORS
330
15C
102
}
330
15C
100
DictionaryVariables
280
     0
  1
Standard
  0
DICTIONARYVAR
  5
195
102
{ACAD_REACTORS
330
15C
102
}
330
15C
100
DictionaryVariables
280
     0
  1
Standard
  0
DICTIONARYVAR
  5
15E
102
{ACAD_REACTORS
330
15C
102
}
330
15C
100
DictionaryVariables
280
     0
  1
2
  0
DICTIONARY
  5
192
330
6C
100
AcDbDictionary
280
     1
281
     1
  3
ACAD_XREC_ROUNDTRIP
360
193
  0
DICTIONARY
  5
18F
330
6A
100
AcDbDictionary
280
     1
281
     1
  3
ACAD_ROUNDTRIP_2008_TABLESTYLE_CELLSTYLEMAP
360
190
  0
DICTIONARY
  5
167
330
2F
100
AcDbDictionary
280
     1
281
     1
  3
ACAD_XREC_ROUNDTRIP
360
168
  0
DICTIONARY
  5
16D
330
32
100
AcDbDictionary
280
     1
281
     1
  3
ACAD_XREC_ROUNDTRIP
360
16E
  0
DICTIONARY
  5
175
330
36
100
AcDbDictionary
280
     1
281
     1
  3
ACAD_XREC_ROUNDTRIP
360
176
  0
DICTIONARY
  5
17D
330
3A
100
AcDbDictionary
280
     1
281
     1
  3
ACAD_XREC_ROUNDTRIP
360
17E
  0
DICTIONARY
  5
171
330
34
100
AcDbDictionary
280
     1
281
     1
  3
ACAD_XREC_ROUNDTRIP
360
172
  0
DICTIONARY
  5
173
330
35
100
AcDbDictionary
280
     1
281
     1
  3
ACAD_XREC_ROUNDTRIP
360
174
  0
DICTIONARY
  5
183
330
3D
100
AcDbDictionary
280
     1
281
     1
  3
ACAD_XREC_ROUNDTRIP
360
184
  0
DICTIONARY
  5
17B
330
39
100
AcDbDictionary
280
     1
281
     1
  3
ACAD_XREC_ROUNDTRIP
360
17C
  0
DICTIONARY
  5
15F
330
2B
100
AcDbDictionary
280
     1
281
     1
  3
ACAD_XREC_ROUNDTRIP
360
160
  0
DICTIONARY
  5
161
330
2C
100
AcDbDictionary
280
     1
281
     1
  3
ACAD_XREC_ROUNDTRIP
360
162
  0
DICTIONARY
  5
163
330
2D
100
AcDbDictionary
280
     1
281
     1
  3
ACAD_XREC_ROUNDTRIP
360
164
  0
DICTIONARY
  5
165
330
2E
100
AcDbDictionary
280
     1
281
     1
  3
ACAD_XREC_ROUNDTRIP
360
166
  0
DICTIONARY
  5
16B
330
31
100
AcDbDictionary
280
     1
281
     1
  3
ACAD_XREC_ROUNDTRIP
360
16C
  0
DICTIONARY
  5
17F
330
3B
100
AcDbDictionary
280
     1
281
     1
  3
ACAD_XREC_ROUNDTRIP
360
180
  0
DICTIONARY
  5
179
330
38
100
AcDbDictionary
280
     1
281
     1
  3
ACAD_XREC_ROUNDTRIP
360
17A
  0
DICTIONARY
  5
181
330
3C
100
AcDbDictionary
280
     1
281
     1
  3
ACAD_XREC_ROUNDTRIP
360
182
  0
DICTIONARY
  5
16F
330
33
100
AcDbDictionary
280
     1
281
     1
  3
ACAD_XREC_ROUNDTRIP
360
170
  0
DICTIONARY
  5
18D
330
42
100
AcDbDictionary
280
     1
281
     1
  3
ACAD_XREC_ROUNDTRIP
360
18E
  0
DICTIONARY
  5
18B
330
41
100
AcDbDictionary
280
     1
281
     1
  3
ACAD_XREC_ROUNDTRIP
360
18C
  0
DICTIONARY
  5
185
330
3E
100
AcDbDictionary
280
     1
281
     1
  3
ACAD_XREC_ROUNDTRIP
360
186
  0
DICTIONARY
  5
187
330
3F
100
AcDbDictionary
280
     1
281
     1
  3
ACAD_XREC_ROUNDTRIP
360
188
  0
DICTIONARY
  5
177
330
37
100
AcDbDictionary
280
     1
281
     1
  3
ACAD_XREC_ROUNDTRIP
360
178
  0
DICTIONARY
  5
169
330
30
100
AcDbDictionary
280
     1
281
     1
  3
ACAD_XREC_ROUNDTRIP
360
16A
  0
DICTIONARY
  5
189
330
40
100
AcDbDictionary
280
     1
281
     1
  3
ACAD_XREC_ROUNDTRIP
360
18A
  0
XRECORD
  5
193
102
{ACAD_REACTORS
330
192
102
}
330
192
100
AcDbXrecord
280
     1
102
ACAD_ROUNDTRIP_2010_MLEADER_STYLE
  0
CELLSTYLEMAP
  5
190
102
{ACAD_REACTORS
330
18F
102
}
330
18F
100
AcDbCellStyleMap
 90
        3
300
CELLSTYLE
  1
TABLEFORMAT_BEGIN
 90
        5
170
     1
 91
        0
 92
    32768
 62
   257
 93
        1
300
CONTENTFORMAT
  1
CONTENTFORMAT_BEGIN
 90
        0
 91
        0
 92
        4
 93
        0
300

 40
0.0
140
1.0
 94
        5
 62
     0
340
11
144
0.25
309
CONTENTFORMAT_END
171
     1
301
MARGIN
  1
CELLMARGIN_BEGIN
 40
0.06
 40
0.06
 40
0.06
 40
0.06
 40
0.06
 40
0.06
309
CELLMARGIN_END
 94
        6
 95
        1
302
GRIDFORMAT
  1
GRIDFORMAT_BEGIN
 90
        0
 91
        1
 62
     0
 92
       -2
340
14
 93
        0
 40
0.045
309
GRIDFORMAT_END
 95
        2
302
GRIDFORMAT
  1
GRIDFORMAT_BEGIN
 90
        0
 91
        1
 62
     0
 92
       -2
340
14
 93
        0
 40
0.045
309
GRIDFORMAT_END
 95
        4
302
GRIDFORMAT
  1
GRIDFORMAT_BEGIN
 90
        0
 91
        1
 62
     0
 92
       -2
340
14
 93
        0
 40
0.045
309
GRIDFORMAT_END
 95
        8
302
GRIDFORMAT
  1
GRIDFORMAT_BEGIN
 90
        0
 91
        1
 62
     0
 92
       -2
340
14
 93
        0
 40
0.045
309
GRIDFORMAT_END
 95
       16
302
GRIDFORMAT
  1
GRIDFORMAT_BEGIN
 90
        0
 91
        1
 62
     0
 92
       -2
340
14
 93
        0
 40
0.045
309
GRIDFORMAT_END
 95
       32
302
GRIDFORMAT
  1
GRIDFORMAT_BEGIN
 90
        0
 91
        1
 62
     0
 92
       -2
340
14
 93
        0
 40
0.045
309
GRIDFORMAT_END
309
TABLEFORMAT_END
  1
CELLSTYLE_BEGIN
 90
        1
 91
        1
300
_TITLE
309
CELLSTYLE_END
300
CELLSTYLE
  1
TABLEFORMAT_BEGIN
 90
        5
170
     1
 91
        0
 92
        0
 62
   257
 93
        1
300
CONTENTFORMAT
  1
CONTENTFORMAT_BEGIN
 90
        0
 91
        0
 92
        4
 93
        0
300

 40
0.0
140
1.0
 94
        5
 62
     0
340
11
144
0.18
309
CONTENTFORMAT_END
171
     1
301
MARGIN
  1
CELLMARGIN_BEGIN
 40
0.06
 40
0.06
 40
0.06
 40
0.06
 40
0.06
 40
0.06
309
CELLMARGIN_END
 94
        6
 95
        1
302
GRIDFORMAT
  1
GRIDFORMAT_BEGIN
 90
        0
 91
        1
 62
     0
 92
       -2
340
14
 93
        0
 40
0.045
309
GRIDFORMAT_END
 95
        2
302
GRIDFORMAT
  1
GRIDFORMAT_BEGIN
 90
        0
 91
        1
 62
     0
 92
       -2
340
14
 93
        0
 40
0.045
309
GRIDFORMAT_END
 95
        4
302
GRIDFORMAT
  1
GRIDFORMAT_BEGIN
 90
        0
 91
        1
 62
     0
 92
       -2
340
14
 93
        0
 40
0.045
309
GRIDFORMAT_END
 95
        8
302
GRIDFORMAT
  1
GRIDFORMAT_BEGIN
 90
        0
 91
        1
 62
     0
 92
       -2
340
14
 93
        0
 40
0.045
309
GRIDFORMAT_END
 95
       16
302
GRIDFORMAT
  1
GRIDFORMAT_BEGIN
 90
        0
 91
        1
 62
     0
 92
       -2
340
14
 93
        0
 40
0.045
309
GRIDFORMAT_END
 95
       32
302
GRIDFORMAT
  1
GRIDFORMAT_BEGIN
 90
        0
 91
        1
 62
     0
 92
       -2
340
14
 93
        0
 40
0.045
309
GRIDFORMAT_END
309
TABLEFORMAT_END
  1
CELLSTYLE_BEGIN
 90
        2
 91
        1
300
_HEADER
309
CELLSTYLE_END
300
CELLSTYLE
  1
TABLEFORMAT_BEGIN
 90
        5
170
     1
 91
        0
 92
        0
 62
   257
 93
        1
300
CONTENTFORMAT
  1
CONTENTFORMAT_BEGIN
 90
        0
 91
        0
 92
        4
 93
        0
300

 40
0.0
140
1.0
 94
        2
 62
     0
340
11
144
0.18
309
CONTENTFORMAT_END
171
     1
301
MARGIN
  1
CELLMARGIN_BEGIN
 40
0.06
 40
0.06
 40
0.06
 40
0.06
 40
0.06
 40
0.06
309
CELLMARGIN_END
 94
        6
 95
        1
302
GRIDFORMAT
  1
GRIDFORMAT_BEGIN
 90
        0
 91
        1
 62
     0
 92
       -2
340
14
 93
        0
 40
0.045
309
GRIDFORMAT_END
 95
        2
302
GRIDFORMAT
  1
GRIDFORMAT_BEGIN
 90
        0
 91
        1
 62
     0
 92
       -2
340
14
 93
        0
 40
0.045
309
GRIDFORMAT_END
 95
        4
302
GRIDFORMAT
  1
GRIDFORMAT_BEGIN
 90
        0
 91
        1
 62
     0
 92
       -2
340
14
 93
        0
 40
0.045
309
GRIDFORMAT_END
 95
        8
302
GRIDFORMAT
  1
GRIDFORMAT_BEGIN
 90
        0
 91
        1
 62
     0
 92
       -2
340
14
 93
        0
 40
0.045
309
GRIDFORMAT_END
 95
       16
302
GRIDFORMAT
  1
GRIDFORMAT_BEGIN
 90
        0
 91
        1
 62
     0
 92
       -2
340
14
 93
        0
 40
0.045
309
GRIDFORMAT_END
 95
       32
302
GRIDFORMAT
  1
GRIDFORMAT_BEGIN
 90
        0
 91
        1
 62
     0
 92
       -2
340
14
 93
        0
 40
0.045
309
GRIDFORMAT_END
309
TABLEFORMAT_END
  1
CELLSTYLE_BEGIN
 90
        3
 91
        2
300
_DATA
309
CELLSTYLE_END
  0
XRECORD
  5
168
102
{ACAD_REACTORS
330
167
102
}
330
167
100
AcDbXrecord
280
     1
102
RTVSPropertyOp0
 70
     1
102
RTVSPropertyOp1
 70
     1
102
RTVSPropertyOp2
 70
     1
102
RTVSPropertyOp3
 70
     1
102
RTVSPropertyOp4
 70
     1
102
RTVSPropertyOp5
 70
     1
102
RTVSPropertyOp6
 70
     1
102
RTVSPropertyOp7
 70
     1
102
RTVSPropertyOp8
 70
     1
102
RTVSPropertyOp9
 70
     1
102
RTVSPropertyOp10
 70
     1
102
RTVSPropertyOp11
 70
     1
102
RTVSPropertyOp12
 70
     1
102
RTVSPropertyOp13
 70
     1
102
RTVSPropertyOp14
 70
     1
102
RTVSPropertyOp15
 70
     1
102
RTVSPropertyOp16
 70
     1
102
RTVSPropertyOp17
 70
     1
102
RTVSPropertyOp18
 70
     1
102
RTVSPropertyOp19
 70
     1
102
RTVSPropertyOp20
 70
     1
102
RTVSPropertyOp21
 70
     1
102
RTVSPropertyOp22
 70
     1
102
RTVSPropertyOp23
 70
     1
102
RTVSPropertyOp24
 70
     1
102
RTVSPropertyOp25
 70
     1
102
RTVSPropertyOp26
 70
     1
102
RTVSPropertyOp27
 70
     1
102
RTVSPropertyOp28
 70
     1
102
RTVSPropertyOp29
 70
     1
102
RTVSPropertyOp30
 70
     1
102
RTVSPropertyOp31
 70
     1
102
RTVSPropertyOp32
 70
     1
102
RTVSPropertyOp33
 70
     1
102
RTVSPropertyOp34
 70
     1
102
RTVSPropertyOp35
 70
     1
102
RTVSPropertyOp36
 70
     1
102
RTVSPropertyOp37
 70
     1
102
RTVSPropertyOp38
 70
     1
102
RTVSPropertyOp39
 70
     1
102
RTVSPropertyOp40
 70
     1
102
RTVSPropertyOp41
 70
     1
102
RTVSPropertyOp42
 70
     1
102
RTVSPropertyOp43
 70
     1
102
RTVSPropertyOp44
 70
     1
102
RTVSPropertyOp45
 70
     1
102
RTVSPropertyOp46
 70
     1
102
RTVSPropertyOp47
 70
     1
102
RTVSPropertyOp48
 70
     1
102
RTVSPropertyOp49
 70
     1
102
RTVSPropertyOp50
 70
     1
102
RTVSPropertyOp51
 70
     0
102
RTVSPropertyOp52
 70
     0
102
RTVSPropertyOp53
 70
     1
102
RTVSPropertyOp54
 70
     1
102
RTVSPropertyOp55
 70
     1
102
RTVSPropertyOp56
 70
     1
102
RTVSPropertyOp57
 70
     1
102
RTVSPost2010Prop28
280
     1
102
RTVSPost2010PropOp28
 70
     1
102
RTVSPost2010Prop29
280
     1
102
RTVSPost2010PropOp29
 70
     1
102
RTVSPost2010Prop30
280
     0
102
RTVSPost2010PropOp30
 70
     1
102
RTVSPost2010Prop31
280
     0
102
RTVSPost2010PropOp31
 70
     1
102
RTVSPost2010Prop32
280
     0
102
RTVSPost2010PropOp32
 70
     1
102
RTVSPost2010Prop33
280
     0
102
RTVSPost2010PropOp33
 70
     1
102
RTVSPost2010Prop34
280
     0
102
RTVSPost2010PropOp34
 70
     1
102
RTVSPost2010Prop35
280
     0
102
RTVSPost2010PropOp35
 70
     1
102
RTVSPost2010Prop36
280
     0
102
RTVSPost2010PropOp36
 70
     1
102
RTVSPost2010Prop37
 90
       50
102
RTVSPost2010PropOp37
 70
     1
102
RTVSPost2010Prop38
140
0.0
102
RTVSPost2010PropOp38
 70
     1
102
RTVSPost2010Prop39
140
1.0
102
RTVSPost2010PropOp39
 70
     1
102
RTVSPost2010Prop40
 90
        0
102
RTVSPost2010PropOp40
 70
     1
102
RTVSPost2010Prop41ColorIndex
 90
       18
102
RTVSPost2010Prop41ColorRGB
 90
        0
102
RTVSPost2010PropOp41
 70
     1
102
RTVSPost2010Prop42
 90
       50
102
RTVSPost2010PropOp42
 70
     1
102
RTVSPost2010Prop43
 90
        3
102
RTVSPost2010PropOp43
 70
     1
102
RTVSPost2010Prop44ColorIndex
 90
        5
102
RTVSPost2010Prop44ColorRGB
 90
      255
102
RTVSPost2010PropOp44
 70
     1
102
RTVSPost2010Prop45
280
     0
102
RTVSPost2010PropOp45
 70
     1
102
RTVSPost2010Prop46
 90
       50
102
RTVSPost2010PropOp46
 70
     1
102
RTVSPost2010Prop47
 90
       50
102
RTVSPost2010PropOp47
 70
     1
102
RTVSPost2010Prop48
 90
       50
102
RTVSPost2010PropOp48
 70
     1
102
RTVSPost2010Prop49
280
     0
102
RTVSPost2010PropOp49
 70
     1
102
RTVSPost2010Prop50
 90
       50
102
RTVSPost2010PropOp50
 70
     1
102
RTVSPost2010Prop51ColorIndex
 90
      256
102
RTVSPost2010Prop51ColorRGB
 90
-16777216
102
RTVSPost2010PropOp51
 70
     0
102
RTVSPost2010Prop52
140
1.0
102
RTVSPost2010PropOp52
 70
     0
102
RTVSPost2010Prop53
 90
        2
102
RTVSPost2010PropOp53
 70
     1
102
RTVSPost2010Prop54
  1
strokes_ogs.tif
102
RTVSPost2010PropOp54
 70
     1
102
RTVSPost2010Prop55
280
     0
102
RTVSPost2010PropOp55
 70
     1
102
RTVSPost2010Prop56
140
1.0
102
RTVSPost2010PropOp56
 70
     1
102
RTVSPost2010Prop57
140
1.0
102
RTVSPost2010PropOp57
 70
     1
  0
XRECORD
  5
16E
102
{ACAD_REACTORS
330
16D
102
}
330
16D
100
AcDbXrecord
280
     1
102
RTVSPropertyOp0
 70
     1
102
RTVSPropertyOp1
 70
     1
102
RTVSPropertyOp2
 70
     1
102
RTVSPropertyOp3
 70
     1
102
RTVSPropertyOp4
 70
     1
102
RTVSPropertyOp5
 70
     1
102
RTVSPropertyOp6
 70
     1
102
RTVSPropertyOp7
 70
     1
102
RTVSPropertyOp8
 70
     1
102
RTVSPropertyOp9
 70
     1
102
RTVSPropertyOp10
 70
     1
102
RTVSPropertyOp11
 70
     1
102
RTVSPropertyOp12
 70
     1
102
RTVSPropertyOp13
 70
     1
102
RTVSPropertyOp14
 70
     1
102
RTVSPropertyOp15
 70
     1
102
RTVSPropertyOp16
 70
     1
102
RTVSPropertyOp17
 70
     1
102
RTVSPropertyOp18
 70
     1
102
RTVSPropertyOp19
 70
     1
102
RTVSPropertyOp20
 70
     1
102
RTVSPropertyOp21
 70
     1
102
RTVSPropertyOp22
 70
     1
102
RTVSPropertyOp23
 70
     1
102
RTVSPropertyOp24
 70
     1
102
RTVSPropertyOp25
 70
     1
102
RTVSPropertyOp26
 70
     1
102
RTVSPropertyOp27
 70
     1
102
RTVSPropertyOp28
 70
     1
102
RTVSPropertyOp29
 70
     1
102
RTVSPropertyOp30
 70
     1
102
RTVSPropertyOp31
 70
     1
102
RTVSPropertyOp32
 70
     1
102
RTVSPropertyOp33
 70
     1
102
RTVSPropertyOp34
 70
     1
102
RTVSPropertyOp35
 70
     1
102
RTVSPropertyOp36
 70
     1
102
RTVSPropertyOp37
 70
     1
102
RTVSPropertyOp38
 70
     1
102
RTVSPropertyOp39
 70
     1
102
RTVSPropertyOp40
 70
     1
102
RTVSPropertyOp41
 70
     1
102
RTVSPropertyOp42
 70
     1
102
RTVSPropertyOp43
 70
     1
102
RTVSPropertyOp44
 70
     1
102
RTVSPropertyOp45
 70
     1
102
RTVSPropertyOp46
 70
     1
102
RTVSPropertyOp47
 70
     1
102
RTVSPropertyOp48
 70
     1
102
RTVSPropertyOp49
 70
     1
102
RTVSPropertyOp50
 70
     1
102
RTVSPropertyOp51
 70
     0
102
RTVSPropertyOp52
 70
     0
102
RTVSPropertyOp53
 70
     1
102
RTVSPropertyOp54
 70
     1
102
RTVSPropertyOp55
 70
     1
102
RTVSPropertyOp56
 70
     1
102
RTVSPropertyOp57
 70
     1
102
RTVSPost2010Prop28
280
     0
102
RTVSPost2010PropOp28
 70
     1
102
RTVSPost2010Prop29
280
     1
102
RTVSPost2010PropOp29
 70
     1
102
RTVSPost2010Prop30
280
     1
102
RTVSPost2010PropOp30
 70
     1
102
RTVSPost2010Prop31
280
     0
102
RTVSPost2010PropOp31
 70
     1
102
RTVSPost2010Prop32
280
     0
102
RTVSPost2010PropOp32
 70
     1
102
RTVSPost2010Prop33
280
     0
102
RTVSPost2010PropOp33
 70
     1
102
RTVSPost2010Prop34
280
     0
102
RTVSPost2010PropOp34
 70
     1
102
RTVSPost2010Prop35
280
     0
102
RTVSPost2010PropOp35
 70
     1
102
RTVSPost2010Prop36
280
     0
102
RTVSPost2010PropOp36
 70
     1
102
RTVSPost2010Prop37
 90
       50
102
RTVSPost2010PropOp37
 70
     1
102
RTVSPost2010Prop38
140
0.0
102
RTVSPost2010PropOp38
 70
     1
102
RTVSPost2010Prop39
140
1.0
102
RTVSPost2010PropOp39
 70
     1
102
RTVSPost2010Prop40
 90
        0
102
RTVSPost2010PropOp40
 70
     1
102
RTVSPost2010Prop41ColorIndex
 90
       18
102
RTVSPost2010Prop41ColorRGB
 90
        0
102
RTVSPost2010PropOp41
 70
     1
102
RTVSPost2010Prop42
 90
       50
102
RTVSPost2010PropOp42
 70
     1
102
RTVSPost2010Prop43
 90
        3
102
RTVSPost2010PropOp43
 70
     1
102
RTVSPost2010Prop44ColorIndex
 90
        5
102
RTVSPost2010Prop44ColorRGB
 90
      255
102
RTVSPost2010PropOp44
 70
     1
102
RTVSPost2010Prop45
280
     0
102
RTVSPost2010PropOp45
 70
     1
102
RTVSPost2010Prop46
 90
       50
102
RTVSPost2010PropOp46
 70
     1
102
RTVSPost2010Prop47
 90
       50
102
RTVSPost2010PropOp47
 70
     1
102
RTVSPost2010Prop48
 90
       50
102
RTVSPost2010PropOp48
 70
     1
102
RTVSPost2010Prop49
280
     0
102
RTVSPost2010PropOp49
 70
     1
102
RTVSPost2010Prop50
 90
       50
102
RTVSPost2010PropOp50
 70
     1
102
RTVSPost2010Prop51ColorIndex
 90
      256
102
RTVSPost2010Prop51ColorRGB
 90
-16777216
102
RTVSPost2010PropOp51
 70
     0
102
RTVSPost2010Prop52
140
1.0
102
RTVSPost2010PropOp52
 70
     0
102
RTVSPost2010Prop53
 90
        2
102
RTVSPost2010PropOp53
 70
     1
102
RTVSPost2010Prop54
  1
strokes_ogs.tif
102
RTVSPost2010PropOp54
 70
     1
102
RTVSPost2010Prop55
280
     0
102
RTVSPost2010PropOp55
 70
     1
102
RTVSPost2010Prop56
140
1.0
102
RTVSPost2010PropOp56
 70
     1
102
RTVSPost2010Prop57
140
1.0
102
RTVSPost2010PropOp57
 70
     1
  0
XRECORD
  5
176
102
{ACAD_REACTORS
330
175
102
}
330
175
100
AcDbXrecord
280
     1
102
RTVSPropertyOp0
 70
     1
102
RTVSPropertyOp1
 70
     1
102
RTVSPropertyOp2
 70
     1
102
RTVSPropertyOp3
 70
     1
102
RTVSPropertyOp4
 70
     1
102
RTVSPropertyOp5
 70
     1
102
RTVSPropertyOp6
 70
     1
102
RTVSPropertyOp7
 70
     1
102
RTVSPropertyOp8
 70
     1
102
RTVSPropertyOp9
 70
     1
102
RTVSPropertyOp10
 70
     1
102
RTVSPropertyOp11
 70
     1
102
RTVSPropertyOp12
 70
     1
102
RTVSPropertyOp13
 70
     1
102
RTVSPropertyOp14
 70
     1
102
RTVSPropertyOp15
 70
     1
102
RTVSPropertyOp16
 70
     1
102
RTVSPropertyOp17
 70
     1
102
RTVSPropertyOp18
 70
     1
102
RTVSPropertyOp19
 70
     1
102
RTVSPropertyOp20
 70
     1
102
RTVSPropertyOp21
 70
     1
102
RTVSPropertyOp22
 70
     1
102
RTVSPropertyOp23
 70
     1
102
RTVSPropertyOp24
 70
     1
102
RTVSPropertyOp25
 70
     1
102
RTVSPropertyOp26
 70
     1
102
RTVSPropertyOp27
 70
     1
102
RTVSPropertyOp28
 70
     1
102
RTVSPropertyOp29
 70
     1
102
RTVSPropertyOp30
 70
     1
102
RTVSPropertyOp31
 70
     1
102
RTVSPropertyOp32
 70
     1
102
RTVSPropertyOp33
 70
     1
102
RTVSPropertyOp34
 70
     1
102
RTVSPropertyOp35
 70
     1
102
RTVSPropertyOp36
 70
     1
102
RTVSPropertyOp37
 70
     1
102
RTVSPropertyOp38
 70
     1
102
RTVSPropertyOp39
 70
     1
102
RTVSPropertyOp40
 70
     1
102
RTVSPropertyOp41
 70
     1
102
RTVSPropertyOp42
 70
     1
102
RTVSPropertyOp43
 70
     1
102
RTVSPropertyOp44
 70
     1
102
RTVSPropertyOp45
 70
     1
102
RTVSPropertyOp46
 70
     1
102
RTVSPropertyOp47
 70
     1
102
RTVSPropertyOp48
 70
     1
102
RTVSPropertyOp49
 70
     1
102
RTVSPropertyOp50
 70
     1
102
RTVSPropertyOp51
 70
     0
102
RTVSPropertyOp52
 70
     0
102
RTVSPropertyOp53
 70
     1
102
RTVSPropertyOp54
 70
     1
102
RTVSPropertyOp55
 70
     1
102
RTVSPropertyOp56
 70
     1
102
RTVSPropertyOp57
 70
     1
102
RTVSPost2010Prop28
280
     0
102
RTVSPost2010PropOp28
 70
     1
102
RTVSPost2010Prop29
280
     1
102
RTVSPost2010PropOp29
 70
     1
102
RTVSPost2010Prop30
280
     1
102
RTVSPost2010PropOp30
 70
     1
102
RTVSPost2010Prop31
280
     0
102
RTVSPost2010PropOp31
 70
     1
102
RTVSPost2010Prop32
280
     0
102
RTVSPost2010PropOp32
 70
     1
102
RTVSPost2010Prop33
280
     0
102
RTVSPost2010PropOp33
 70
     1
102
RTVSPost2010Prop34
280
     0
102
RTVSPost2010PropOp34
 70
     1
102
RTVSPost2010Prop35
280
     0
102
RTVSPost2010PropOp35
 70
     1
102
RTVSPost2010Prop36
280
     0
102
RTVSPost2010PropOp36
 70
     1
102
RTVSPost2010Prop37
 90
       50
102
RTVSPost2010PropOp37
 70
     1
102
RTVSPost2010Prop38
140
0.0
102
RTVSPost2010PropOp38
 70
     1
102
RTVSPost2010Prop39
140
1.0
102
RTVSPost2010PropOp39
 70
     1
102
RTVSPost2010Prop40
 90
        0
102
RTVSPost2010PropOp40
 70
     1
102
RTVSPost2010Prop41ColorIndex
 90
       18
102
RTVSPost2010Prop41ColorRGB
 90
        0
102
RTVSPost2010PropOp41
 70
     1
102
RTVSPost2010Prop42
 90
       50
102
RTVSPost2010PropOp42
 70
     1
102
RTVSPost2010Prop43
 90
        3
102
RTVSPost2010PropOp43
 70
     1
102
RTVSPost2010Prop44ColorIndex
 90
        5
102
RTVSPost2010Prop44ColorRGB
 90
      255
102
RTVSPost2010PropOp44
 70
     1
102
RTVSPost2010Prop45
280
     0
102
RTVSPost2010PropOp45
 70
     1
102
RTVSPost2010Prop46
 90
       50
102
RTVSPost2010PropOp46
 70
     1
102
RTVSPost2010Prop47
 90
       50
102
RTVSPost2010PropOp47
 70
     1
102
RTVSPost2010Prop48
 90
       50
102
RTVSPost2010PropOp48
 70
     1
102
RTVSPost2010Prop49
280
     0
102
RTVSPost2010PropOp49
 70
     1
102
RTVSPost2010Prop50
 90
       50
102
RTVSPost2010PropOp50
 70
     1
102
RTVSPost2010Prop51ColorIndex
 90
      256
102
RTVSPost2010Prop51ColorRGB
 90
-16777216
102
RTVSPost2010PropOp51
 70
     0
102
RTVSPost2010Prop52
140
1.0
102
RTVSPost2010PropOp52
 70
     0
102
RTVSPost2010Prop53
 90
        2
102
RTVSPost2010PropOp53
 70
     1
102
RTVSPost2010Prop54
  1
strokes_ogs.tif
102
RTVSPost2010PropOp54
 70
     1
102
RTVSPost2010Prop55
280
     0
102
RTVSPost2010PropOp55
 70
     1
102
RTVSPost2010Prop56
140
1.0
102
RTVSPost2010PropOp56
 70
     1
102
RTVSPost2010Prop57
140
1.0
102
RTVSPost2010PropOp57
 70
     1
  0
XRECORD
  5
17E
102
{ACAD_REACTORS
330
17D
102
}
330
17D
100
AcDbXrecord
280
     1
102
RTVSPropertyOp0
 70
     1
102
RTVSPropertyOp1
 70
     1
102
RTVSPropertyOp2
 70
     1
102
RTVSPropertyOp3
 70
     1
102
RTVSPropertyOp4
 70
     1
102
RTVSPropertyOp5
 70
     1
102
RTVSPropertyOp6
 70
     1
102
RTVSPropertyOp7
 70
     1
102
RTVSPropertyOp8
 70
     1
102
RTVSPropertyOp9
 70
     1
102
RTVSPropertyOp10
 70
     1
102
RTVSPropertyOp11
 70
     1
102
RTVSPropertyOp12
 70
     1
102
RTVSPropertyOp13
 70
     1
102
RTVSPropertyOp14
 70
     1
102
RTVSPropertyOp15
 70
     1
102
RTVSPropertyOp16
 70
     1
102
RTVSPropertyOp17
 70
     1
102
RTVSPropertyOp18
 70
     1
102
RTVSPropertyOp19
 70
     1
102
RTVSPropertyOp20
 70
     1
102
RTVSPropertyOp21
 70
     1
102
RTVSPropertyOp22
 70
     1
102
RTVSPropertyOp23
 70
     1
102
RTVSPropertyOp24
 70
     1
102
RTVSPropertyOp25
 70
     1
102
RTVSPropertyOp26
 70
     1
102
RTVSPropertyOp27
 70
     1
102
RTVSPropertyOp28
 70
     1
102
RTVSPropertyOp29
 70
     1
102
RTVSPropertyOp30
 70
     1
102
RTVSPropertyOp31
 70
     1
102
RTVSPropertyOp32
 70
     1
102
RTVSPropertyOp33
 70
     1
102
RTVSPropertyOp34
 70
     1
102
RTVSPropertyOp35
 70
     1
102
RTVSPropertyOp36
 70
     1
102
RTVSPropertyOp37
 70
     1
102
RTVSPropertyOp38
 70
     1
102
RTVSPropertyOp39
 70
     1
102
RTVSPropertyOp40
 70
     1
102
RTVSPropertyOp41
 70
     1
102
RTVSPropertyOp42
 70
     1
102
RTVSPropertyOp43
 70
     1
102
RTVSPropertyOp44
 70
     1
102
RTVSPropertyOp45
 70
     1
102
RTVSPropertyOp46
 70
     1
102
RTVSPropertyOp47
 70
     1
102
RTVSPropertyOp48
 70
     1
102
RTVSPropertyOp49
 70
     1
102
RTVSPropertyOp50
 70
     1
102
RTVSPropertyOp51
 70
     0
102
RTVSPropertyOp52
 70
     0
102
RTVSPropertyOp53
 70
     1
102
RTVSPropertyOp54
 70
     1
102
RTVSPropertyOp55
 70
     1
102
RTVSPropertyOp56
 70
     1
102
RTVSPropertyOp57
 70
     1
102
RTVSPost2010Prop28
280
     0
102
RTVSPost2010PropOp28
 70
     1
102
RTVSPost2010Prop29
280
     1
102
RTVSPost2010PropOp29
 70
     1
102
RTVSPost2010Prop30
280
     1
102
RTVSPost2010PropOp30
 70
     1
102
RTVSPost2010Prop31
280
     0
102
RTVSPost2010PropOp31
 70
     1
102
RTVSPost2010Prop32
280
     0
102
RTVSPost2010PropOp32
 70
     1
102
RTVSPost2010Prop33
280
     0
102
RTVSPost2010PropOp33
 70
     1
102
RTVSPost2010Prop34
280
     0
102
RTVSPost2010PropOp34
 70
     1
102
RTVSPost2010Prop35
280
     0
102
RTVSPost2010PropOp35
 70
     1
102
RTVSPost2010Prop36
280
     0
102
RTVSPost2010PropOp36
 70
     1
102
RTVSPost2010Prop37
 90
       50
102
RTVSPost2010PropOp37
 70
     1
102
RTVSPost2010Prop38
140
0.0
102
RTVSPost2010PropOp38
 70
     1
102
RTVSPost2010Prop39
140
1.0
102
RTVSPost2010PropOp39
 70
     1
102
RTVSPost2010Prop40
 90
        0
102
RTVSPost2010PropOp40
 70
     1
102
RTVSPost2010Prop41ColorIndex
 90
       18
102
RTVSPost2010Prop41ColorRGB
 90
        0
102
RTVSPost2010PropOp41
 70
     1
102
RTVSPost2010Prop42
 90
       50
102
RTVSPost2010PropOp42
 70
     1
102
RTVSPost2010Prop43
 90
        3
102
RTVSPost2010PropOp43
 70
     1
102
RTVSPost2010Prop44ColorIndex
 90
        5
102
RTVSPost2010Prop44ColorRGB
 90
      255
102
RTVSPost2010PropOp44
 70
     1
102
RTVSPost2010Prop45
280
     0
102
RTVSPost2010PropOp45
 70
     1
102
RTVSPost2010Prop46
 90
       50
102
RTVSPost2010PropOp46
 70
     1
102
RTVSPost2010Prop47
 90
       50
102
RTVSPost2010PropOp47
 70
     1
102
RTVSPost2010Prop48
 90
       50
102
RTVSPost2010PropOp48
 70
     1
102
RTVSPost2010Prop49
280
     0
102
RTVSPost2010PropOp49
 70
     1
102
RTVSPost2010Prop50
 90
       50
102
RTVSPost2010PropOp50
 70
     1
102
RTVSPost2010Prop51ColorIndex
 90
      256
102
RTVSPost2010Prop51ColorRGB
 90
-16777216
102
RTVSPost2010PropOp51
 70
     0
102
RTVSPost2010Prop52
140
1.0
102
RTVSPost2010PropOp52
 70
     0
102
RTVSPost2010Prop53
 90
        2
102
RTVSPost2010PropOp53
 70
     1
102
RTVSPost2010Prop54
  1
strokes_ogs.tif
102
RTVSPost2010PropOp54
 70
     1
102
RTVSPost2010Prop55
280
     0
102
RTVSPost2010PropOp55
 70
     1
102
RTVSPost2010Prop56
140
1.0
102
RTVSPost2010PropOp56
 70
     1
102
RTVSPost2010Prop57
140
1.0
102
RTVSPost2010PropOp57
 70
     1
  0
XRECORD
  5
172
102
{ACAD_REACTORS
330
171
102
}
330
171
100
AcDbXrecord
280
     1
102
RTVSPropertyOp0
 70
     1
102
RTVSPropertyOp1
 70
     1
102
RTVSPropertyOp2
 70
     1
102
RTVSPropertyOp3
 70
     1
102
RTVSPropertyOp4
 70
     1
102
RTVSPropertyOp5
 70
     1
102
RTVSPropertyOp6
 70
     1
102
RTVSPropertyOp7
 70
     1
102
RTVSPropertyOp8
 70
     1
102
RTVSPropertyOp9
 70
     1
102
RTVSPropertyOp10
 70
     1
102
RTVSPropertyOp11
 70
     1
102
RTVSPropertyOp12
 70
     1
102
RTVSPropertyOp13
 70
     1
102
RTVSPropertyOp14
 70
     1
102
RTVSPropertyOp15
 70
     1
102
RTVSPropertyOp16
 70
     1
102
RTVSPropertyOp17
 70
     1
102
RTVSPropertyOp18
 70
     1
102
RTVSPropertyOp19
 70
     1
102
RTVSPropertyOp20
 70
     1
102
RTVSPropertyOp21
 70
     1
102
RTVSPropertyOp22
 70
     1
102
RTVSPropertyOp23
 70
     1
102
RTVSPropertyOp24
 70
     1
102
RTVSPropertyOp25
 70
     1
102
RTVSPropertyOp26
 70
     1
102
RTVSPropertyOp27
 70
     1
102
RTVSPropertyOp28
 70
     1
102
RTVSPropertyOp29
 70
     1
102
RTVSPropertyOp30
 70
     1
102
RTVSPropertyOp31
 70
     1
102
RTVSPropertyOp32
 70
     1
102
RTVSPropertyOp33
 70
     1
102
RTVSPropertyOp34
 70
     1
102
RTVSPropertyOp35
 70
     1
102
RTVSPropertyOp36
 70
     1
102
RTVSPropertyOp37
 70
     1
102
RTVSPropertyOp38
 70
     1
102
RTVSPropertyOp39
 70
     1
102
RTVSPropertyOp40
 70
     1
102
RTVSPropertyOp41
 70
     1
102
RTVSPropertyOp42
 70
     1
102
RTVSPropertyOp43
 70
     1
102
RTVSPropertyOp44
 70
     1
102
RTVSPropertyOp45
 70
     1
102
RTVSPropertyOp46
 70
     1
102
RTVSPropertyOp47
 70
     1
102
RTVSPropertyOp48
 70
     1
102
RTVSPropertyOp49
 70
     1
102
RTVSPropertyOp50
 70
     1
102
RTVSPropertyOp51
 70
     0
102
RTVSPropertyOp52
 70
     0
102
RTVSPropertyOp53
 70
     1
102
RTVSPropertyOp54
 70
     1
102
RTVSPropertyOp55
 70
     1
102
RTVSPropertyOp56
 70
     1
102
RTVSPropertyOp57
 70
     1
102
RTVSPost2010Prop28
280
     0
102
RTVSPost2010PropOp28
 70
     1
102
RTVSPost2010Prop29
280
     1
102
RTVSPost2010PropOp29
 70
     1
102
RTVSPost2010Prop30
280
     1
102
RTVSPost2010PropOp30
 70
     1
102
RTVSPost2010Prop31
280
     0
102
RTVSPost2010PropOp31
 70
     1
102
RTVSPost2010Prop32
280
     0
102
RTVSPost2010PropOp32
 70
     1
102
RTVSPost2010Prop33
280
     0
102
RTVSPost2010PropOp33
 70
     1
102
RTVSPost2010Prop34
280
     0
102
RTVSPost2010PropOp34
 70
     1
102
RTVSPost2010Prop35
280
     0
102
RTVSPost2010PropOp35
 70
     1
102
RTVSPost2010Prop36
280
     0
102
RTVSPost2010PropOp36
 70
     1
102
RTVSPost2010Prop37
 90
       50
102
RTVSPost2010PropOp37
 70
     1
102
RTVSPost2010Prop38
140
0.0
102
RTVSPost2010PropOp38
 70
     1
102
RTVSPost2010Prop39
140
1.0
102
RTVSPost2010PropOp39
 70
     1
102
RTVSPost2010Prop40
 90
        0
102
RTVSPost2010PropOp40
 70
     1
102
RTVSPost2010Prop41ColorIndex
 90
       18
102
RTVSPost2010Prop41ColorRGB
 90
        0
102
RTVSPost2010PropOp41
 70
     1
102
RTVSPost2010Prop42
 90
       50
102
RTVSPost2010PropOp42
 70
     1
102
RTVSPost2010Prop43
 90
        3
102
RTVSPost2010PropOp43
 70
     1
102
RTVSPost2010Prop44ColorIndex
 90
        5
102
RTVSPost2010Prop44ColorRGB
 90
      255
102
RTVSPost2010PropOp44
 70
     1
102
RTVSPost2010Prop45
280
     0
102
RTVSPost2010PropOp45
 70
     1
102
RTVSPost2010Prop46
 90
       50
102
RTVSPost2010PropOp46
 70
     1
102
RTVSPost2010Prop47
 90
       50
102
RTVSPost2010PropOp47
 70
     1
102
RTVSPost2010Prop48
 90
       50
102
RTVSPost2010PropOp48
 70
     1
102
RTVSPost2010Prop49
280
     0
102
RTVSPost2010PropOp49
 70
     1
102
RTVSPost2010Prop50
 90
       50
102
RTVSPost2010PropOp50
 70
     1
102
RTVSPost2010Prop51ColorIndex
 90
      256
102
RTVSPost2010Prop51ColorRGB
 90
-16777216
102
RTVSPost2010PropOp51
 70
     0
102
RTVSPost2010Prop52
140
1.0
102
RTVSPost2010PropOp52
 70
     0
102
RTVSPost2010Prop53
 90
        2
102
RTVSPost2010PropOp53
 70
     1
102
RTVSPost2010Prop54
  1
strokes_ogs.tif
102
RTVSPost2010PropOp54
 70
     1
102
RTVSPost2010Prop55
280
     0
102
RTVSPost2010PropOp55
 70
     1
102
RTVSPost2010Prop56
140
1.0
102
RTVSPost2010PropOp56
 70
     1
102
RTVSPost2010Prop57
140
1.0
102
RTVSPost2010PropOp57
 70
     1
  0
XRECORD
  5
174
102
{ACAD_REACTORS
330
173
102
}
330
173
100
AcDbXrecord
280
     1
102
RTVSPropertyOp0
 70
     1
102
RTVSPropertyOp1
 70
     1
102
RTVSPropertyOp2
 70
     1
102
RTVSPropertyOp3
 70
     1
102
RTVSPropertyOp4
 70
     1
102
RTVSPropertyOp5
 70
     1
102
RTVSPropertyOp6
 70
     1
102
RTVSPropertyOp7
 70
     1
102
RTVSPropertyOp8
 70
     1
102
RTVSPropertyOp9
 70
     1
102
RTVSPropertyOp10
 70
     1
102
RTVSPropertyOp11
 70
     1
102
RTVSPropertyOp12
 70
     1
102
RTVSPropertyOp13
 70
     1
102
RTVSPropertyOp14
 70
     1
102
RTVSPropertyOp15
 70
     1
102
RTVSPropertyOp16
 70
     1
102
RTVSPropertyOp17
 70
     1
102
RTVSPropertyOp18
 70
     1
102
RTVSPropertyOp19
 70
     1
102
RTVSPropertyOp20
 70
     1
102
RTVSPropertyOp21
 70
     1
102
RTVSPropertyOp22
 70
     1
102
RTVSPropertyOp23
 70
     1
102
RTVSPropertyOp24
 70
     1
102
RTVSPropertyOp25
 70
     1
102
RTVSPropertyOp26
 70
     1
102
RTVSPropertyOp27
 70
     1
102
RTVSPropertyOp28
 70
     1
102
RTVSPropertyOp29
 70
     1
102
RTVSPropertyOp30
 70
     1
102
RTVSPropertyOp31
 70
     1
102
RTVSPropertyOp32
 70
     1
102
RTVSPropertyOp33
 70
     1
102
RTVSPropertyOp34
 70
     1
102
RTVSPropertyOp35
 70
     1
102
RTVSPropertyOp36
 70
     1
102
RTVSPropertyOp37
 70
     1
102
RTVSPropertyOp38
 70
     1
102
RTVSPropertyOp39
 70
     1
102
RTVSPropertyOp40
 70
     1
102
RTVSPropertyOp41
 70
     1
102
RTVSPropertyOp42
 70
     1
102
RTVSPropertyOp43
 70
     1
102
RTVSPropertyOp44
 70
     1
102
RTVSPropertyOp45
 70
     1
102
RTVSPropertyOp46
 70
     1
102
RTVSPropertyOp47
 70
     1
102
RTVSPropertyOp48
 70
     1
102
RTVSPropertyOp49
 70
     1
102
RTVSPropertyOp50
 70
     1
102
RTVSPropertyOp51
 70
     0
102
RTVSPropertyOp52
 70
     0
102
RTVSPropertyOp53
 70
     1
102
RTVSPropertyOp54
 70
     1
102
RTVSPropertyOp55
 70
     1
102
RTVSPropertyOp56
 70
     1
102
RTVSPropertyOp57
 70
     1
102
RTVSPost2010Prop28
280
     0
102
RTVSPost2010PropOp28
 70
     1
102
RTVSPost2010Prop29
280
     1
102
RTVSPost2010PropOp29
 70
     1
102
RTVSPost2010Prop30
280
     1
102
RTVSPost2010PropOp30
 70
     1
102
RTVSPost2010Prop31
280
     0
102
RTVSPost2010PropOp31
 70
     1
102
RTVSPost2010Prop32
280
     0
102
RTVSPost2010PropOp32
 70
     1
102
RTVSPost2010Prop33
280
     0
102
RTVSPost2010PropOp33
 70
     1
102
RTVSPost2010Prop34
280
     0
102
RTVSPost2010PropOp34
 70
     1
102
RTVSPost2010Prop35
280
     0
102
RTVSPost2010PropOp35
 70
     1
102
RTVSPost2010Prop36
280
     0
102
RTVSPost2010PropOp36
 70
     1
102
RTVSPost2010Prop37
 90
       50
102
RTVSPost2010PropOp37
 70
     1
102
RTVSPost2010Prop38
140
0.0
102
RTVSPost2010PropOp38
 70
     1
102
RTVSPost2010Prop39
140
1.0
102
RTVSPost2010PropOp39
 70
     1
102
RTVSPost2010Prop40
 90
        0
102
RTVSPost2010PropOp40
 70
     1
102
RTVSPost2010Prop41ColorIndex
 90
       18
102
RTVSPost2010Prop41ColorRGB
 90
        0
102
RTVSPost2010PropOp41
 70
     1
102
RTVSPost2010Prop42
 90
       50
102
RTVSPost2010PropOp42
 70
     1
102
RTVSPost2010Prop43
 90
        3
102
RTVSPost2010PropOp43
 70
     1
102
RTVSPost2010Prop44ColorIndex
 90
        5
102
RTVSPost2010Prop44ColorRGB
 90
      255
102
RTVSPost2010PropOp44
 70
     1
102
RTVSPost2010Prop45
280
     0
102
RTVSPost2010PropOp45
 70
     1
102
RTVSPost2010Prop46
 90
       50
102
RTVSPost2010PropOp46
 70
     1
102
RTVSPost2010Prop47
 90
       50
102
RTVSPost2010PropOp47
 70
     1
102
RTVSPost2010Prop48
 90
       50
102
RTVSPost2010PropOp48
 70
     1
102
RTVSPost2010Prop49
280
     0
102
RTVSPost2010PropOp49
 70
     1
102
RTVSPost2010Prop50
 90
       50
102
RTVSPost2010PropOp50
 70
     1
102
RTVSPost2010Prop51ColorIndex
 90
      256
102
RTVSPost2010Prop51ColorRGB
 90
-16777216
102
RTVSPost2010PropOp51
 70
     0
102
RTVSPost2010Prop52
140
1.0
102
RTVSPost2010PropOp52
 70
     0
102
RTVSPost2010Prop53
 90
        2
102
RTVSPost2010PropOp53
 70
     1
102
RTVSPost2010Prop54
  1
strokes_ogs.tif
102
RTVSPost2010PropOp54
 70
     1
102
RTVSPost2010Prop55
280
     0
102
RTVSPost2010PropOp55
 70
     1
102
RTVSPost2010Prop56
140
1.0
102
RTVSPost2010PropOp56
 70
     1
102
RTVSPost2010Prop57
140
1.0
102
RTVSPost2010PropOp57
 70
     1
  0
XRECORD
  5
184
102
{ACAD_REACTORS
330
183
102
}
330
183
100
AcDbXrecord
280
     1
102
RTVSPropertyOp0
 70
     0
102
RTVSPropertyOp1
 70
     0
102
RTVSPropertyOp2
 70
     0
102
RTVSPropertyOp3
 70
     0
102
RTVSPropertyOp4
 70
     0
102
RTVSPropertyOp5
 70
     0
102
RTVSPropertyOp6
 70
     0
102
RTVSPropertyOp7
 70
     0
102
RTVSPropertyOp8
 70
     0
102
RTVSPropertyOp9
 70
     0
102
RTVSPropertyOp10
 70
     0
102
RTVSPropertyOp11
 70
     0
102
RTVSPropertyOp12
 70
     0
102
RTVSPropertyOp13
 70
     0
102
RTVSPropertyOp14
 70
     2
102
RTVSPropertyOp15
 70
     0
102
RTVSPropertyOp16
 70
     0
102
RTVSPropertyOp17
 70
     0
102
RTVSPropertyOp18
 70
     0
102
RTVSPropertyOp19
 70
     0
102
RTVSPropertyOp20
 70
     0
102
RTVSPropertyOp21
 70
     0
102
RTVSPropertyOp22
 70
     0
102
RTVSPropertyOp23
 70
     0
102
RTVSPropertyOp24
 70
     0
102
RTVSPropertyOp25
 70
     0
102
RTVSPropertyOp26
 70
     0
102
RTVSPropertyOp27
 70
     0
102
RTVSPropertyOp28
 70
     0
102
RTVSPropertyOp29
 70
     0
102
RTVSPropertyOp30
 70
     0
102
RTVSPropertyOp31
 70
     0
102
RTVSPropertyOp32
 70
     0
102
RTVSPropertyOp33
 70
     0
102
RTVSPropertyOp34
 70
     0
102
RTVSPropertyOp35
 70
     0
102
RTVSPropertyOp36
 70
     0
102
RTVSPropertyOp37
 70
     0
102
RTVSPropertyOp38
 70
     0
102
RTVSPropertyOp39
 70
     0
102
RTVSPropertyOp40
 70
     0
102
RTVSPropertyOp41
 70
     0
102
RTVSPropertyOp42
 70
     0
102
RTVSPropertyOp43
 70
     0
102
RTVSPropertyOp44
 70
     0
102
RTVSPropertyOp45
 70
     0
102
RTVSPropertyOp46
 70
     0
102
RTVSPropertyOp47
 70
     0
102
RTVSPropertyOp48
 70
     0
102
RTVSPropertyOp49
 70
     0
102
RTVSPropertyOp50
 70
     0
102
RTVSPropertyOp51
 70
     0
102
RTVSPropertyOp52
 70
     0
102
RTVSPropertyOp53
 70
     0
102
RTVSPropertyOp54
 70
     0
102
RTVSPropertyOp55
 70
     0
102
RTVSPropertyOp56
 70
     0
102
RTVSPropertyOp57
 70
     0
102
RTVSPost2010Prop28
280
     0
102
RTVSPost2010PropOp28
 70
     0
102
RTVSPost2010Prop29
280
     1
102
RTVSPost2010PropOp29
 70
     0
102
RTVSPost2010Prop30
280
     1
102
RTVSPost2010PropOp30
 70
     0
102
RTVSPost2010Prop31
280
     0
102
RTVSPost2010PropOp31
 70
     0
102
RTVSPost2010Prop32
280
     0
102
RTVSPost2010PropOp32
 70
     0
102
RTVSPost2010Prop33
280
     0
102
RTVSPost2010PropOp33
 70
     0
102
RTVSPost2010Prop34
280
     0
102
RTVSPost2010PropOp34
 70
     0
102
RTVSPost2010Prop35
280
     0
102
RTVSPost2010PropOp35
 70
     0
102
RTVSPost2010Prop36
280
     0
102
RTVSPost2010PropOp36
 70
     0
102
RTVSPost2010Prop37
 90
       50
102
RTVSPost2010PropOp37
 70
     0
102
RTVSPost2010Prop38
140
0.0
102
RTVSPost2010PropOp38
 70
     0
102
RTVSPost2010Prop39
140
1.0
102
RTVSPost2010PropOp39
 70
     0
102
RTVSPost2010Prop40
 90
        0
102
RTVSPost2010PropOp40
 70
     0
102
RTVSPost2010Prop41ColorIndex
 90
       18
102
RTVSPost2010Prop41ColorRGB
 90
        0
102
RTVSPost2010PropOp41
 70
     0
102
RTVSPost2010Prop42
 90
       50
102
RTVSPost2010PropOp42
 70
     0
102
RTVSPost2010Prop43
 90
        3
102
RTVSPost2010PropOp43
 70
     0
102
RTVSPost2010Prop44ColorIndex
 90
        5
102
RTVSPost2010Prop44ColorRGB
 90
      255
102
RTVSPost2010PropOp44
 70
     0
102
RTVSPost2010Prop45
280
     0
102
RTVSPost2010PropOp45
 70
     0
102
RTVSPost2010Prop46
 90
       50
102
RTVSPost2010PropOp46
 70
     0
102
RTVSPost2010Prop47
 90
       50
102
RTVSPost2010PropOp47
 70
     0
102
RTVSPost2010Prop48
 90
       50
102
RTVSPost2010PropOp48
 70
     0
102
RTVSPost2010Prop49
280
     0
102
RTVSPost2010PropOp49
 70
     0
102
RTVSPost2010Prop50
 90
       50
102
RTVSPost2010PropOp50
 70
     0
102
RTVSPost2010Prop51ColorIndex
 90
      256
102
RTVSPost2010Prop51ColorRGB
 90
-16777216
102
RTVSPost2010PropOp51
 70
     0
102
RTVSPost2010Prop52
140
1.0
102
RTVSPost2010PropOp52
 70
     0
102
RTVSPost2010Prop53
 90
        2
102
RTVSPost2010PropOp53
 70
     0
102
RTVSPost2010Prop54
  1
strokes_ogs.tif
102
RTVSPost2010PropOp54
 70
     0
102
RTVSPost2010Prop55
280
     0
102
RTVSPost2010PropOp55
 70
     0
102
RTVSPost2010Prop56
140
1.0
102
RTVSPost2010PropOp56
 70
     0
102
RTVSPost2010Prop57
140
1.0
102
RTVSPost2010PropOp57
 70
     0
  0
XRECORD
  5
17C
102
{ACAD_REACTORS
330
17B
102
}
330
17B
100
AcDbXrecord
280
     1
102
RTVSPropertyOp0
 70
     1
102
RTVSPropertyOp1
 70
     1
102
RTVSPropertyOp2
 70
     1
102
RTVSPropertyOp3
 70
     1
102
RTVSPropertyOp4
 70
     1
102
RTVSPropertyOp5
 70
     1
102
RTVSPropertyOp6
 70
     1
102
RTVSPropertyOp7
 70
     1
102
RTVSPropertyOp8
 70
     1
102
RTVSPropertyOp9
 70
     1
102
RTVSPropertyOp10
 70
     1
102
RTVSPropertyOp11
 70
     1
102
RTVSPropertyOp12
 70
     1
102
RTVSPropertyOp13
 70
     1
102
RTVSPropertyOp14
 70
     1
102
RTVSPropertyOp15
 70
     1
102
RTVSPropertyOp16
 70
     1
102
RTVSPropertyOp17
 70
     1
102
RTVSPropertyOp18
 70
     1
102
RTVSPropertyOp19
 70
     1
102
RTVSPropertyOp20
 70
     1
102
RTVSPropertyOp21
 70
     1
102
RTVSPropertyOp22
 70
     1
102
RTVSPropertyOp23
 70
     1
102
RTVSPropertyOp24
 70
     1
102
RTVSPropertyOp25
 70
     1
102
RTVSPropertyOp26
 70
     1
102
RTVSPropertyOp27
 70
     1
102
RTVSPropertyOp28
 70
     1
102
RTVSPropertyOp29
 70
     1
102
RTVSPropertyOp30
 70
     1
102
RTVSPropertyOp31
 70
     1
102
RTVSPropertyOp32
 70
     1
102
RTVSPropertyOp33
 70
     1
102
RTVSPropertyOp34
 70
     1
102
RTVSPropertyOp35
 70
     1
102
RTVSPropertyOp36
 70
     1
102
RTVSPropertyOp37
 70
     1
102
RTVSPropertyOp38
 70
     1
102
RTVSPropertyOp39
 70
     1
102
RTVSPropertyOp40
 70
     1
102
RTVSPropertyOp41
 70
     1
102
RTVSPropertyOp42
 70
     1
102
RTVSPropertyOp43
 70
     1
102
RTVSPropertyOp44
 70
     1
102
RTVSPropertyOp45
 70
     1
102
RTVSPropertyOp46
 70
     1
102
RTVSPropertyOp47
 70
     1
102
RTVSPropertyOp48
 70
     1
102
RTVSPropertyOp49
 70
     1
102
RTVSPropertyOp50
 70
     1
102
RTVSPropertyOp51
 70
     0
102
RTVSPropertyOp52
 70
     0
102
RTVSPropertyOp53
 70
     1
102
RTVSPropertyOp54
 70
     1
102
RTVSPropertyOp55
 70
     1
102
RTVSPropertyOp56
 70
     1
102
RTVSPropertyOp57
 70
     1
102
RTVSPost2010Prop28
280
     0
102
RTVSPost2010PropOp28
 70
     1
102
RTVSPost2010Prop29
280
     1
102
RTVSPost2010PropOp29
 70
     1
102
RTVSPost2010Prop30
280
     1
102
RTVSPost2010PropOp30
 70
     1
102
RTVSPost2010Prop31
280
     0
102
RTVSPost2010PropOp31
 70
     1
102
RTVSPost2010Prop32
280
     0
102
RTVSPost2010PropOp32
 70
     1
102
RTVSPost2010Prop33
280
     0
102
RTVSPost2010PropOp33
 70
     1
102
RTVSPost2010Prop34
280
     0
102
RTVSPost2010PropOp34
 70
     1
102
RTVSPost2010Prop35
280
     0
102
RTVSPost2010PropOp35
 70
     1
102
RTVSPost2010Prop36
280
     0
102
RTVSPost2010PropOp36
 70
     1
102
RTVSPost2010Prop37
 90
       50
102
RTVSPost2010PropOp37
 70
     1
102
RTVSPost2010Prop38
140
0.0
102
RTVSPost2010PropOp38
 70
     1
102
RTVSPost2010Prop39
140
1.0
102
RTVSPost2010PropOp39
 70
     1
102
RTVSPost2010Prop40
 90
        0
102
RTVSPost2010PropOp40
 70
     1
102
RTVSPost2010Prop41ColorIndex
 90
       18
102
RTVSPost2010Prop41ColorRGB
 90
        0
102
RTVSPost2010PropOp41
 70
     1
102
RTVSPost2010Prop42
 90
       50
102
RTVSPost2010PropOp42
 70
     1
102
RTVSPost2010Prop43
 90
        3
102
RTVSPost2010PropOp43
 70
     1
102
RTVSPost2010Prop44ColorIndex
 90
        5
102
RTVSPost2010Prop44ColorRGB
 90
      255
102
RTVSPost2010PropOp44
 70
     1
102
RTVSPost2010Prop45
280
     0
102
RTVSPost2010PropOp45
 70
     1
102
RTVSPost2010Prop46
 90
       50
102
RTVSPost2010PropOp46
 70
     1
102
RTVSPost2010Prop47
 90
       50
102
RTVSPost2010PropOp47
 70
     1
102
RTVSPost2010Prop48
 90
       50
102
RTVSPost2010PropOp48
 70
     1
102
RTVSPost2010Prop49
280
     0
102
RTVSPost2010PropOp49
 70
     1
102
RTVSPost2010Prop50
 90
       50
102
RTVSPost2010PropOp50
 70
     1
102
RTVSPost2010Prop51ColorIndex
 90
      256
102
RTVSPost2010Prop51ColorRGB
 90
-16777216
102
RTVSPost2010PropOp51
 70
     0
102
RTVSPost2010Prop52
140
1.0
102
RTVSPost2010PropOp52
 70
     0
102
RTVSPost2010Prop53
 90
        2
102
RTVSPost2010PropOp53
 70
     1
102
RTVSPost2010Prop54
  1
strokes_ogs.tif
102
RTVSPost2010PropOp54
 70
     1
102
RTVSPost2010Prop55
280
     0
102
RTVSPost2010PropOp55
 70
     1
102
RTVSPost2010Prop56
140
1.0
102
RTVSPost2010PropOp56
 70
     1
102
RTVSPost2010Prop57
140
1.0
102
RTVSPost2010PropOp57
 70
     1
  0
XRECORD
  5
160
102
{ACAD_REACTORS
330
15F
102
}
330
15F
100
AcDbXrecord
280
     1
102
RTVSPropertyOp0
 70
     1
102
RTVSPropertyOp1
 70
     1
102
RTVSPropertyOp2
 70
     1
102
RTVSPropertyOp3
 70
     1
102
RTVSPropertyOp4
 70
     1
102
RTVSPropertyOp5
 70
     1
102
RTVSPropertyOp6
 70
     1
102
RTVSPropertyOp7
 70
     1
102
RTVSPropertyOp8
 70
     1
102
RTVSPropertyOp9
 70
     1
102
RTVSPropertyOp10
 70
     1
102
RTVSPropertyOp11
 70
     1
102
RTVSPropertyOp12
 70
     1
102
RTVSPropertyOp13
 70
     1
102
RTVSPropertyOp14
 70
     1
102
RTVSPropertyOp15
 70
     1
102
RTVSPropertyOp16
 70
     1
102
RTVSPropertyOp17
 70
     1
102
RTVSPropertyOp18
 70
     1
102
RTVSPropertyOp19
 70
     1
102
RTVSPropertyOp20
 70
     1
102
RTVSPropertyOp21
 70
     1
102
RTVSPropertyOp22
 70
     1
102
RTVSPropertyOp23
 70
     1
102
RTVSPropertyOp24
 70
     1
102
RTVSPropertyOp25
 70
     1
102
RTVSPropertyOp26
 70
     1
102
RTVSPropertyOp27
 70
     1
102
RTVSPropertyOp28
 70
     1
102
RTVSPropertyOp29
 70
     1
102
RTVSPropertyOp30
 70
     1
102
RTVSPropertyOp31
 70
     1
102
RTVSPropertyOp32
 70
     1
102
RTVSPropertyOp33
 70
     1
102
RTVSPropertyOp34
 70
     1
102
RTVSPropertyOp35
 70
     1
102
RTVSPropertyOp36
 70
     1
102
RTVSPropertyOp37
 70
     1
102
RTVSPropertyOp38
 70
     1
102
RTVSPropertyOp39
 70
     1
102
RTVSPropertyOp40
 70
     1
102
RTVSPropertyOp41
 70
     1
102
RTVSPropertyOp42
 70
     1
102
RTVSPropertyOp43
 70
     1
102
RTVSPropertyOp44
 70
     1
102
RTVSPropertyOp45
 70
     1
102
RTVSPropertyOp46
 70
     1
102
RTVSPropertyOp47
 70
     1
102
RTVSPropertyOp48
 70
     1
102
RTVSPropertyOp49
 70
     1
102
RTVSPropertyOp50
 70
     1
102
RTVSPropertyOp51
 70
     0
102
RTVSPropertyOp52
 70
     0
102
RTVSPropertyOp53
 70
     1
102
RTVSPropertyOp54
 70
     1
102
RTVSPropertyOp55
 70
     1
102
RTVSPropertyOp56
 70
     1
102
RTVSPropertyOp57
 70
     1
102
RTVSPost2010Prop28
280
     0
102
RTVSPost2010PropOp28
 70
     1
102
RTVSPost2010Prop29
280
     1
102
RTVSPost2010PropOp29
 70
     1
102
RTVSPost2010Prop30
280
     1
102
RTVSPost2010PropOp30
 70
     1
102
RTVSPost2010Prop31
280
     0
102
RTVSPost2010PropOp31
 70
     1
102
RTVSPost2010Prop32
280
     0
102
RTVSPost2010PropOp32
 70
     1
102
RTVSPost2010Prop33
280
     0
102
RTVSPost2010PropOp33
 70
     1
102
RTVSPost2010Prop34
280
     0
102
RTVSPost2010PropOp34
 70
     1
102
RTVSPost2010Prop35
280
     0
102
RTVSPost2010PropOp35
 70
     1
102
RTVSPost2010Prop36
280
     0
102
RTVSPost2010PropOp36
 70
     1
102
RTVSPost2010Prop37
 90
       50
102
RTVSPost2010PropOp37
 70
     1
102
RTVSPost2010Prop38
140
0.0
102
RTVSPost2010PropOp38
 70
     1
102
RTVSPost2010Prop39
140
1.0
102
RTVSPost2010PropOp39
 70
     1
102
RTVSPost2010Prop40
 90
        0
102
RTVSPost2010PropOp40
 70
     1
102
RTVSPost2010Prop41ColorIndex
 90
       18
102
RTVSPost2010Prop41ColorRGB
 90
        0
102
RTVSPost2010PropOp41
 70
     1
102
RTVSPost2010Prop42
 90
       50
102
RTVSPost2010PropOp42
 70
     1
102
RTVSPost2010Prop43
 90
        3
102
RTVSPost2010PropOp43
 70
     1
102
RTVSPost2010Prop44ColorIndex
 90
        5
102
RTVSPost2010Prop44ColorRGB
 90
      255
102
RTVSPost2010PropOp44
 70
     1
102
RTVSPost2010Prop45
280
     0
102
RTVSPost2010PropOp45
 70
     1
102
RTVSPost2010Prop46
 90
       50
102
RTVSPost2010PropOp46
 70
     1
102
RTVSPost2010Prop47
 90
       50
102
RTVSPost2010PropOp47
 70
     1
102
RTVSPost2010Prop48
 90
       50
102
RTVSPost2010PropOp48
 70
     1
102
RTVSPost2010Prop49
280
     0
102
RTVSPost2010PropOp49
 70
     1
102
RTVSPost2010Prop50
 90
       50
102
RTVSPost2010PropOp50
 70
     1
102
RTVSPost2010Prop51ColorIndex
 90
      256
102
RTVSPost2010Prop51ColorRGB
 90
-16777216
102
RTVSPost2010PropOp51
 70
     0
102
RTVSPost2010Prop52
140
1.0
102
RTVSPost2010PropOp52
 70
     0
102
RTVSPost2010Prop53
 90
        2
102
RTVSPost2010PropOp53
 70
     1
102
RTVSPost2010Prop54
  1
strokes_ogs.tif
102
RTVSPost2010PropOp54
 70
     1
102
RTVSPost2010Prop55
280
     0
102
RTVSPost2010PropOp55
 70
     1
102
RTVSPost2010Prop56
140
1.0
102
RTVSPost2010PropOp56
 70
     1
102
RTVSPost2010Prop57
140
1.0
102
RTVSPost2010PropOp57
 70
     1
  0
XRECORD
  5
162
102
{ACAD_REACTORS
330
161
102
}
330
161
100
AcDbXrecord
280
     1
102
RTVSPropertyOp0
 70
     1
102
RTVSPropertyOp1
 70
     1
102
RTVSPropertyOp2
 70
     1
102
RTVSPropertyOp3
 70
     1
102
RTVSPropertyOp4
 70
     1
102
RTVSPropertyOp5
 70
     1
102
RTVSPropertyOp6
 70
     1
102
RTVSPropertyOp7
 70
     1
102
RTVSPropertyOp8
 70
     1
102
RTVSPropertyOp9
 70
     1
102
RTVSPropertyOp10
 70
     1
102
RTVSPropertyOp11
 70
     1
102
RTVSPropertyOp12
 70
     1
102
RTVSPropertyOp13
 70
     1
102
RTVSPropertyOp14
 70
     1
102
RTVSPropertyOp15
 70
     1
102
RTVSPropertyOp16
 70
     1
102
RTVSPropertyOp17
 70
     1
102
RTVSPropertyOp18
 70
     1
102
RTVSPropertyOp19
 70
     1
102
RTVSPropertyOp20
 70
     1
102
RTVSPropertyOp21
 70
     1
102
RTVSPropertyOp22
 70
     1
102
RTVSPropertyOp23
 70
     1
102
RTVSPropertyOp24
 70
     1
102
RTVSPropertyOp25
 70
     1
102
RTVSPropertyOp26
 70
     1
102
RTVSPropertyOp27
 70
     1
102
RTVSPropertyOp28
 70
     1
102
RTVSPropertyOp29
 70
     1
102
RTVSPropertyOp30
 70
     1
102
RTVSPropertyOp31
 70
     1
102
RTVSPropertyOp32
 70
     1
102
RTVSPropertyOp33
 70
     1
102
RTVSPropertyOp34
 70
     1
102
RTVSPropertyOp35
 70
     1
102
RTVSPropertyOp36
 70
     1
102
RTVSPropertyOp37
 70
     1
102
RTVSPropertyOp38
 70
     1
102
RTVSPropertyOp39
 70
     1
102
RTVSPropertyOp40
 70
     1
102
RTVSPropertyOp41
 70
     1
102
RTVSPropertyOp42
 70
     1
102
RTVSPropertyOp43
 70
     1
102
RTVSPropertyOp44
 70
     1
102
RTVSPropertyOp45
 70
     1
102
RTVSPropertyOp46
 70
     1
102
RTVSPropertyOp47
 70
     1
102
RTVSPropertyOp48
 70
     1
102
RTVSPropertyOp49
 70
     1
102
RTVSPropertyOp50
 70
     1
102
RTVSPropertyOp51
 70
     0
102
RTVSPropertyOp52
 70
     0
102
RTVSPropertyOp53
 70
     1
102
RTVSPropertyOp54
 70
     1
102
RTVSPropertyOp55
 70
     1
102
RTVSPropertyOp56
 70
     1
102
RTVSPropertyOp57
 70
     1
102
RTVSPost2010Prop28
280
     0
102
RTVSPost2010PropOp28
 70
     1
102
RTVSPost2010Prop29
280
     1
102
RTVSPost2010PropOp29
 70
     1
102
RTVSPost2010Prop30
280
     1
102
RTVSPost2010PropOp30
 70
     1
102
RTVSPost2010Prop31
280
     0
102
RTVSPost2010PropOp31
 70
     1
102
RTVSPost2010Prop32
280
     0
102
RTVSPost2010PropOp32
 70
     1
102
RTVSPost2010Prop33
280
     0
102
RTVSPost2010PropOp33
 70
     1
102
RTVSPost2010Prop34
280
     0
102
RTVSPost2010PropOp34
 70
     1
102
RTVSPost2010Prop35
280
     0
102
RTVSPost2010PropOp35
 70
     1
102
RTVSPost2010Prop36
280
     0
102
RTVSPost2010PropOp36
 70
     1
102
RTVSPost2010Prop37
 90
       50
102
RTVSPost2010PropOp37
 70
     1
102
RTVSPost2010Prop38
140
0.0
102
RTVSPost2010PropOp38
 70
     1
102
RTVSPost2010Prop39
140
1.0
102
RTVSPost2010PropOp39
 70
     1
102
RTVSPost2010Prop40
 90
        0
102
RTVSPost2010PropOp40
 70
     1
102
RTVSPost2010Prop41ColorIndex
 90
       18
102
RTVSPost2010Prop41ColorRGB
 90
        0
102
RTVSPost2010PropOp41
 70
     1
102
RTVSPost2010Prop42
 90
       50
102
RTVSPost2010PropOp42
 70
     1
102
RTVSPost2010Prop43
 90
        3
102
RTVSPost2010PropOp43
 70
     1
102
RTVSPost2010Prop44ColorIndex
 90
        5
102
RTVSPost2010Prop44ColorRGB
 90
      255
102
RTVSPost2010PropOp44
 70
     1
102
RTVSPost2010Prop45
280
     0
102
RTVSPost2010PropOp45
 70
     1
102
RTVSPost2010Prop46
 90
       50
102
RTVSPost2010PropOp46
 70
     1
102
RTVSPost2010Prop47
 90
       50
102
RTVSPost2010PropOp47
 70
     1
102
RTVSPost2010Prop48
 90
       50
102
RTVSPost2010PropOp48
 70
     1
102
RTVSPost2010Prop49
280
     0
102
RTVSPost2010PropOp49
 70
     1
102
RTVSPost2010Prop50
 90
       50
102
RTVSPost2010PropOp50
 70
     1
102
RTVSPost2010Prop51ColorIndex
 90
      256
102
RTVSPost2010Prop51ColorRGB
 90
-16777216
102
RTVSPost2010PropOp51
 70
     0
102
RTVSPost2010Prop52
140
1.0
102
RTVSPost2010PropOp52
 70
     0
102
RTVSPost2010Prop53
 90
        2
102
RTVSPost2010PropOp53
 70
     1
102
RTVSPost2010Prop54
  1
strokes_ogs.tif
102
RTVSPost2010PropOp54
 70
     1
102
RTVSPost2010Prop55
280
     0
102
RTVSPost2010PropOp55
 70
     1
102
RTVSPost2010Prop56
140
1.0
102
RTVSPost2010PropOp56
 70
     1
102
RTVSPost2010Prop57
140
1.0
102
RTVSPost2010PropOp57
 70
     1
  0
XRECORD
  5
164
102
{ACAD_REACTORS
330
163
102
}
330
163
100
AcDbXrecord
280
     1
102
RTVSPropertyOp0
 70
     1
102
RTVSPropertyOp1
 70
     1
102
RTVSPropertyOp2
 70
     1
102
RTVSPropertyOp3
 70
     1
102
RTVSPropertyOp4
 70
     1
102
RTVSPropertyOp5
 70
     1
102
RTVSPropertyOp6
 70
     1
102
RTVSPropertyOp7
 70
     1
102
RTVSPropertyOp8
 70
     1
102
RTVSPropertyOp9
 70
     1
102
RTVSPropertyOp10
 70
     1
102
RTVSPropertyOp11
 70
     1
102
RTVSPropertyOp12
 70
     1
102
RTVSPropertyOp13
 70
     1
102
RTVSPropertyOp14
 70
     1
102
RTVSPropertyOp15
 70
     1
102
RTVSPropertyOp16
 70
     1
102
RTVSPropertyOp17
 70
     1
102
RTVSPropertyOp18
 70
     1
102
RTVSPropertyOp19
 70
     1
102
RTVSPropertyOp20
 70
     1
102
RTVSPropertyOp21
 70
     1
102
RTVSPropertyOp22
 70
     1
102
RTVSPropertyOp23
 70
     1
102
RTVSPropertyOp24
 70
     1
102
RTVSPropertyOp25
 70
     1
102
RTVSPropertyOp26
 70
     1
102
RTVSPropertyOp27
 70
     1
102
RTVSPropertyOp28
 70
     1
102
RTVSPropertyOp29
 70
     1
102
RTVSPropertyOp30
 70
     1
102
RTVSPropertyOp31
 70
     1
102
RTVSPropertyOp32
 70
     1
102
RTVSPropertyOp33
 70
     1
102
RTVSPropertyOp34
 70
     1
102
RTVSPropertyOp35
 70
     1
102
RTVSPropertyOp36
 70
     1
102
RTVSPropertyOp37
 70
     1
102
RTVSPropertyOp38
 70
     1
102
RTVSPropertyOp39
 70
     1
102
RTVSPropertyOp40
 70
     1
102
RTVSPropertyOp41
 70
     1
102
RTVSPropertyOp42
 70
     1
102
RTVSPropertyOp43
 70
     1
102
RTVSPropertyOp44
 70
     1
102
RTVSPropertyOp45
 70
     1
102
RTVSPropertyOp46
 70
     1
102
RTVSPropertyOp47
 70
     1
102
RTVSPropertyOp48
 70
     1
102
RTVSPropertyOp49
 70
     1
102
RTVSPropertyOp50
 70
     1
102
RTVSPropertyOp51
 70
     0
102
RTVSPropertyOp52
 70
     0
102
RTVSPropertyOp53
 70
     1
102
RTVSPropertyOp54
 70
     1
102
RTVSPropertyOp55
 70
     1
102
RTVSPropertyOp56
 70
     1
102
RTVSPropertyOp57
 70
     1
102
RTVSPost2010Prop28
280
     0
102
RTVSPost2010PropOp28
 70
     1
102
RTVSPost2010Prop29
280
     1
102
RTVSPost2010PropOp29
 70
     1
102
RTVSPost2010Prop30
280
     1
102
RTVSPost2010PropOp30
 70
     1
102
RTVSPost2010Prop31
280
     0
102
RTVSPost2010PropOp31
 70
     1
102
RTVSPost2010Prop32
280
     0
102
RTVSPost2010PropOp32
 70
     1
102
RTVSPost2010Prop33
280
     0
102
RTVSPost2010PropOp33
 70
     1
102
RTVSPost2010Prop34
280
     0
102
RTVSPost2010PropOp34
 70
     1
102
RTVSPost2010Prop35
280
     0
102
RTVSPost2010PropOp35
 70
     1
102
RTVSPost2010Prop36
280
     0
102
RTVSPost2010PropOp36
 70
     1
102
RTVSPost2010Prop37
 90
       50
102
RTVSPost2010PropOp37
 70
     1
102
RTVSPost2010Prop38
140
0.0
102
RTVSPost2010PropOp38
 70
     1
102
RTVSPost2010Prop39
140
1.0
102
RTVSPost2010PropOp39
 70
     1
102
RTVSPost2010Prop40
 90
        0
102
RTVSPost2010PropOp40
 70
     1
102
RTVSPost2010Prop41ColorIndex
 90
       18
102
RTVSPost2010Prop41ColorRGB
 90
        0
102
RTVSPost2010PropOp41
 70
     1
102
RTVSPost2010Prop42
 90
       50
102
RTVSPost2010PropOp42
 70
     1
102
RTVSPost2010Prop43
 90
        3
102
RTVSPost2010PropOp43
 70
     1
102
RTVSPost2010Prop44ColorIndex
 90
        5
102
RTVSPost2010Prop44ColorRGB
 90
      255
102
RTVSPost2010PropOp44
 70
     1
102
RTVSPost2010Prop45
280
     0
102
RTVSPost2010PropOp45
 70
     1
102
RTVSPost2010Prop46
 90
       50
102
RTVSPost2010PropOp46
 70
     1
102
RTVSPost2010Prop47
 90
       50
102
RTVSPost2010PropOp47
 70
     1
102
RTVSPost2010Prop48
 90
       50
102
RTVSPost2010PropOp48
 70
     1
102
RTVSPost2010Prop49
280
     0
102
RTVSPost2010PropOp49
 70
     1
102
RTVSPost2010Prop50
 90
       50
102
RTVSPost2010PropOp50
 70
     1
102
RTVSPost2010Prop51ColorIndex
 90
      256
102
RTVSPost2010Prop51ColorRGB
 90
-16777216
102
RTVSPost2010PropOp51
 70
     0
102
RTVSPost2010Prop52
140
1.0
102
RTVSPost2010PropOp52
 70
     0
102
RTVSPost2010Prop53
 90
        2
102
RTVSPost2010PropOp53
 70
     1
102
RTVSPost2010Prop54
  1
strokes_ogs.tif
102
RTVSPost2010PropOp54
 70
     1
102
RTVSPost2010Prop55
280
     0
102
RTVSPost2010PropOp55
 70
     1
102
RTVSPost2010Prop56
140
1.0
102
RTVSPost2010PropOp56
 70
     1
102
RTVSPost2010Prop57
140
1.0
102
RTVSPost2010PropOp57
 70
     1
  0
XRECORD
  5
166
102
{ACAD_REACTORS
330
165
102
}
330
165
100
AcDbXrecord
280
     1
102
RTVSPropertyOp0
 70
     1
102
RTVSPropertyOp1
 70
     1
102
RTVSPropertyOp2
 70
     1
102
RTVSPropertyOp3
 70
     1
102
RTVSPropertyOp4
 70
     1
102
RTVSPropertyOp5
 70
     1
102
RTVSPropertyOp6
 70
     1
102
RTVSPropertyOp7
 70
     1
102
RTVSPropertyOp8
 70
     1
102
RTVSPropertyOp9
 70
     1
102
RTVSPropertyOp10
 70
     1
102
RTVSPropertyOp11
 70
     1
102
RTVSPropertyOp12
 70
     1
102
RTVSPropertyOp13
 70
     1
102
RTVSPropertyOp14
 70
     1
102
RTVSPropertyOp15
 70
     1
102
RTVSPropertyOp16
 70
     1
102
RTVSPropertyOp17
 70
     1
102
RTVSPropertyOp18
 70
     1
102
RTVSPropertyOp19
 70
     1
102
RTVSPropertyOp20
 70
     1
102
RTVSPropertyOp21
 70
     1
102
RTVSPropertyOp22
 70
     1
102
RTVSPropertyOp23
 70
     1
102
RTVSPropertyOp24
 70
     1
102
RTVSPropertyOp25
 70
     1
102
RTVSPropertyOp26
 70
     1
102
RTVSPropertyOp27
 70
     1
102
RTVSPropertyOp28
 70
     1
102
RTVSPropertyOp29
 70
     1
102
RTVSPropertyOp30
 70
     1
102
RTVSPropertyOp31
 70
     1
102
RTVSPropertyOp32
 70
     1
102
RTVSPropertyOp33
 70
     1
102
RTVSPropertyOp34
 70
     1
102
RTVSPropertyOp35
 70
     1
102
RTVSPropertyOp36
 70
     1
102
RTVSPropertyOp37
 70
     1
102
RTVSPropertyOp38
 70
     1
102
RTVSPropertyOp39
 70
     1
102
RTVSPropertyOp40
 70
     1
102
RTVSPropertyOp41
 70
     1
102
RTVSPropertyOp42
 70
     1
102
RTVSPropertyOp43
 70
     1
102
RTVSPropertyOp44
 70
     1
102
RTVSPropertyOp45
 70
     1
102
RTVSPropertyOp46
 70
     1
102
RTVSPropertyOp47
 70
     1
102
RTVSPropertyOp48
 70
     1
102
RTVSPropertyOp49
 70
     1
102
RTVSPropertyOp50
 70
     1
102
RTVSPropertyOp51
 70
     0
102
RTVSPropertyOp52
 70
     0
102
RTVSPropertyOp53
 70
     1
102
RTVSPropertyOp54
 70
     1
102
RTVSPropertyOp55
 70
     1
102
RTVSPropertyOp56
 70
     1
102
RTVSPropertyOp57
 70
     1
102
RTVSPost2010Prop28
280
     0
102
RTVSPost2010PropOp28
 70
     1
102
RTVSPost2010Prop29
280
     1
102
RTVSPost2010PropOp29
 70
     1
102
RTVSPost2010Prop30
280
     1
102
RTVSPost2010PropOp30
 70
     1
102
RTVSPost2010Prop31
280
     0
102
RTVSPost2010PropOp31
 70
     1
102
RTVSPost2010Prop32
280
     0
102
RTVSPost2010PropOp32
 70
     1
102
RTVSPost2010Prop33
280
     0
102
RTVSPost2010PropOp33
 70
     1
102
RTVSPost2010Prop34
280
     0
102
RTVSPost2010PropOp34
 70
     1
102
RTVSPost2010Prop35
280
     0
102
RTVSPost2010PropOp35
 70
     1
102
RTVSPost2010Prop36
280
     0
102
RTVSPost2010PropOp36
 70
     1
102
RTVSPost2010Prop37
 90
       50
102
RTVSPost2010PropOp37
 70
     1
102
RTVSPost2010Prop38
140
0.0
102
RTVSPost2010PropOp38
 70
     1
102
RTVSPost2010Prop39
140
1.0
102
RTVSPost2010PropOp39
 70
     1
102
RTVSPost2010Prop40
 90
        0
102
RTVSPost2010PropOp40
 70
     1
102
RTVSPost2010Prop41ColorIndex
 90
       18
102
RTVSPost2010Prop41ColorRGB
 90
        0
102
RTVSPost2010PropOp41
 70
     1
102
RTVSPost2010Prop42
 90
       50
102
RTVSPost2010PropOp42
 70
     1
102
RTVSPost2010Prop43
 90
        3
102
RTVSPost2010PropOp43
 70
     1
102
RTVSPost2010Prop44ColorIndex
 90
        5
102
RTVSPost2010Prop44ColorRGB
 90
      255
102
RTVSPost2010PropOp44
 70
     1
102
RTVSPost2010Prop45
280
     0
102
RTVSPost2010PropOp45
 70
     1
102
RTVSPost2010Prop46
 90
       50
102
RTVSPost2010PropOp46
 70
     1
102
RTVSPost2010Prop47
 90
       50
102
RTVSPost2010PropOp47
 70
     1
102
RTVSPost2010Prop48
 90
       50
102
RTVSPost2010PropOp48
 70
     1
102
RTVSPost2010Prop49
280
     0
102
RTVSPost2010PropOp49
 70
     1
102
RTVSPost2010Prop50
 90
       50
102
RTVSPost2010PropOp50
 70
     1
102
RTVSPost2010Prop51ColorIndex
 90
      256
102
RTVSPost2010Prop51ColorRGB
 90
-16777216
102
RTVSPost2010PropOp51
 70
     0
102
RTVSPost2010Prop52
140
1.0
102
RTVSPost2010PropOp52
 70
     0
102
RTVSPost2010Prop53
 90
        2
102
RTVSPost2010PropOp53
 70
     1
102
RTVSPost2010Prop54
  1
strokes_ogs.tif
102
RTVSPost2010PropOp54
 70
     1
102
RTVSPost2010Prop55
280
     0
102
RTVSPost2010PropOp55
 70
     1
102
RTVSPost2010Prop56
140
1.0
102
RTVSPost2010PropOp56
 70
     1
102
RTVSPost2010Prop57
140
1.0
102
RTVSPost2010PropOp57
 70
     1
  0
XRECORD
  5
16C
102
{ACAD_REACTORS
330
16B
102
}
330
16B
100
AcDbXrecord
280
     1
102
RTVSPropertyOp0
 70
     1
102
RTVSPropertyOp1
 70
     1
102
RTVSPropertyOp2
 70
     1
102
RTVSPropertyOp3
 70
     1
102
RTVSPropertyOp4
 70
     1
102
RTVSPropertyOp5
 70
     1
102
RTVSPropertyOp6
 70
     1
102
RTVSPropertyOp7
 70
     1
102
RTVSPropertyOp8
 70
     1
102
RTVSPropertyOp9
 70
     1
102
RTVSPropertyOp10
 70
     1
102
RTVSPropertyOp11
 70
     1
102
RTVSPropertyOp12
 70
     1
102
RTVSPropertyOp13
 70
     1
102
RTVSPropertyOp14
 70
     1
102
RTVSPropertyOp15
 70
     1
102
RTVSPropertyOp16
 70
     1
102
RTVSPropertyOp17
 70
     1
102
RTVSPropertyOp18
 70
     1
102
RTVSPropertyOp19
 70
     1
102
RTVSPropertyOp20
 70
     1
102
RTVSPropertyOp21
 70
     1
102
RTVSPropertyOp22
 70
     1
102
RTVSPropertyOp23
 70
     1
102
RTVSPropertyOp24
 70
     1
102
RTVSPropertyOp25
 70
     1
102
RTVSPropertyOp26
 70
     1
102
RTVSPropertyOp27
 70
     1
102
RTVSPropertyOp28
 70
     1
102
RTVSPropertyOp29
 70
     1
102
RTVSPropertyOp30
 70
     1
102
RTVSPropertyOp31
 70
     1
102
RTVSPropertyOp32
 70
     1
102
RTVSPropertyOp33
 70
     1
102
RTVSPropertyOp34
 70
     1
102
RTVSPropertyOp35
 70
     1
102
RTVSPropertyOp36
 70
     1
102
RTVSPropertyOp37
 70
     1
102
RTVSPropertyOp38
 70
     1
102
RTVSPropertyOp39
 70
     1
102
RTVSPropertyOp40
 70
     1
102
RTVSPropertyOp41
 70
     1
102
RTVSPropertyOp42
 70
     1
102
RTVSPropertyOp43
 70
     1
102
RTVSPropertyOp44
 70
     1
102
RTVSPropertyOp45
 70
     1
102
RTVSPropertyOp46
 70
     1
102
RTVSPropertyOp47
 70
     1
102
RTVSPropertyOp48
 70
     1
102
RTVSPropertyOp49
 70
     1
102
RTVSPropertyOp50
 70
     1
102
RTVSPropertyOp51
 70
     0
102
RTVSPropertyOp52
 70
     0
102
RTVSPropertyOp53
 70
     1
102
RTVSPropertyOp54
 70
     1
102
RTVSPropertyOp55
 70
     1
102
RTVSPropertyOp56
 70
     1
102
RTVSPropertyOp57
 70
     1
102
RTVSPost2010Prop28
280
     0
102
RTVSPost2010PropOp28
 70
     1
102
RTVSPost2010Prop29
280
     1
102
RTVSPost2010PropOp29
 70
     1
102
RTVSPost2010Prop30
280
     1
102
RTVSPost2010PropOp30
 70
     1
102
RTVSPost2010Prop31
280
     0
102
RTVSPost2010PropOp31
 70
     1
102
RTVSPost2010Prop32
280
     0
102
RTVSPost2010PropOp32
 70
     1
102
RTVSPost2010Prop33
280
     0
102
RTVSPost2010PropOp33
 70
     1
102
RTVSPost2010Prop34
280
     0
102
RTVSPost2010PropOp34
 70
     1
102
RTVSPost2010Prop35
280
     0
102
RTVSPost2010PropOp35
 70
     1
102
RTVSPost2010Prop36
280
     0
102
RTVSPost2010PropOp36
 70
     1
102
RTVSPost2010Prop37
 90
       50
102
RTVSPost2010PropOp37
 70
     1
102
RTVSPost2010Prop38
140
0.0
102
RTVSPost2010PropOp38
 70
     1
102
RTVSPost2010Prop39
140
1.0
102
RTVSPost2010PropOp39
 70
     1
102
RTVSPost2010Prop40
 90
        0
102
RTVSPost2010PropOp40
 70
     1
102
RTVSPost2010Prop41ColorIndex
 90
       18
102
RTVSPost2010Prop41ColorRGB
 90
        0
102
RTVSPost2010PropOp41
 70
     1
102
RTVSPost2010Prop42
 90
       50
102
RTVSPost2010PropOp42
 70
     1
102
RTVSPost2010Prop43
 90
        3
102
RTVSPost2010PropOp43
 70
     1
102
RTVSPost2010Prop44ColorIndex
 90
        5
102
RTVSPost2010Prop44ColorRGB
 90
      255
102
RTVSPost2010PropOp44
 70
     1
102
RTVSPost2010Prop45
280
     0
102
RTVSPost2010PropOp45
 70
     1
102
RTVSPost2010Prop46
 90
       50
102
RTVSPost2010PropOp46
 70
     1
102
RTVSPost2010Prop47
 90
       50
102
RTVSPost2010PropOp47
 70
     1
102
RTVSPost2010Prop48
 90
       50
102
RTVSPost2010PropOp48
 70
     1
102
RTVSPost2010Prop49
280
     0
102
RTVSPost2010PropOp49
 70
     1
102
RTVSPost2010Prop50
 90
       50
102
RTVSPost2010PropOp50
 70
     1
102
RTVSPost2010Prop51ColorIndex
 90
      256
102
RTVSPost2010Prop51ColorRGB
 90
-16777216
102
RTVSPost2010PropOp51
 70
     0
102
RTVSPost2010Prop52
140
1.0
102
RTVSPost2010PropOp52
 70
     0
102
RTVSPost2010Prop53
 90
        2
102
RTVSPost2010PropOp53
 70
     1
102
RTVSPost2010Prop54
  1
strokes_ogs.tif
102
RTVSPost2010PropOp54
 70
     1
102
RTVSPost2010Prop55
280
     0
102
RTVSPost2010PropOp55
 70
     1
102
RTVSPost2010Prop56
140
1.0
102
RTVSPost2010PropOp56
 70
     1
102
RTVSPost2010Prop57
140
1.0
102
RTVSPost2010PropOp57
 70
     1
  0
XRECORD
  5
180
102
{ACAD_REACTORS
330
17F
102
}
330
17F
100
AcDbXrecord
280
     1
102
RTVSPropertyOp0
 70
     0
102
RTVSPropertyOp1
 70
     0
102
RTVSPropertyOp2
 70
     0
102
RTVSPropertyOp3
 70
     0
102
RTVSPropertyOp4
 70
     0
102
RTVSPropertyOp5
 70
     0
102
RTVSPropertyOp6
 70
     0
102
RTVSPropertyOp7
 70
     0
102
RTVSPropertyOp8
 70
     0
102
RTVSPropertyOp9
 70
     0
102
RTVSPropertyOp10
 70
     0
102
RTVSPropertyOp11
 70
     0
102
RTVSPropertyOp12
 70
     0
102
RTVSPropertyOp13
 70
     0
102
RTVSPropertyOp14
 70
     2
102
RTVSPropertyOp15
 70
     0
102
RTVSPropertyOp16
 70
     0
102
RTVSPropertyOp17
 70
     0
102
RTVSPropertyOp18
 70
     0
102
RTVSPropertyOp19
 70
     0
102
RTVSPropertyOp20
 70
     0
102
RTVSPropertyOp21
 70
     0
102
RTVSPropertyOp22
 70
     0
102
RTVSPropertyOp23
 70
     0
102
RTVSPropertyOp24
 70
     0
102
RTVSPropertyOp25
 70
     0
102
RTVSPropertyOp26
 70
     0
102
RTVSPropertyOp27
 70
     0
102
RTVSPropertyOp28
 70
     0
102
RTVSPropertyOp29
 70
     0
102
RTVSPropertyOp30
 70
     0
102
RTVSPropertyOp31
 70
     0
102
RTVSPropertyOp32
 70
     0
102
RTVSPropertyOp33
 70
     0
102
RTVSPropertyOp34
 70
     0
102
RTVSPropertyOp35
 70
     0
102
RTVSPropertyOp36
 70
     0
102
RTVSPropertyOp37
 70
     0
102
RTVSPropertyOp38
 70
     0
102
RTVSPropertyOp39
 70
     0
102
RTVSPropertyOp40
 70
     0
102
RTVSPropertyOp41
 70
     0
102
RTVSPropertyOp42
 70
     0
102
RTVSPropertyOp43
 70
     0
102
RTVSPropertyOp44
 70
     0
102
RTVSPropertyOp45
 70
     0
102
RTVSPropertyOp46
 70
     0
102
RTVSPropertyOp47
 70
     0
102
RTVSPropertyOp48
 70
     0
102
RTVSPropertyOp49
 70
     0
102
RTVSPropertyOp50
 70
     0
102
RTVSPropertyOp51
 70
     0
102
RTVSPropertyOp52
 70
     0
102
RTVSPropertyOp53
 70
     0
102
RTVSPropertyOp54
 70
     0
102
RTVSPropertyOp55
 70
     0
102
RTVSPropertyOp56
 70
     0
102
RTVSPropertyOp57
 70
     0
102
RTVSPost2010Prop28
280
     0
102
RTVSPost2010PropOp28
 70
     0
102
RTVSPost2010Prop29
280
     1
102
RTVSPost2010PropOp29
 70
     0
102
RTVSPost2010Prop30
280
     1
102
RTVSPost2010PropOp30
 70
     0
102
RTVSPost2010Prop31
280
     0
102
RTVSPost2010PropOp31
 70
     0
102
RTVSPost2010Prop32
280
     0
102
RTVSPost2010PropOp32
 70
     0
102
RTVSPost2010Prop33
280
     0
102
RTVSPost2010PropOp33
 70
     0
102
RTVSPost2010Prop34
280
     0
102
RTVSPost2010PropOp34
 70
     0
102
RTVSPost2010Prop35
280
     0
102
RTVSPost2010PropOp35
 70
     0
102
RTVSPost2010Prop36
280
     0
102
RTVSPost2010PropOp36
 70
     0
102
RTVSPost2010Prop37
 90
       50
102
RTVSPost2010PropOp37
 70
     0
102
RTVSPost2010Prop38
140
0.0
102
RTVSPost2010PropOp38
 70
     0
102
RTVSPost2010Prop39
140
1.0
102
RTVSPost2010PropOp39
 70
     0
102
RTVSPost2010Prop40
 90
        0
102
RTVSPost2010PropOp40
 70
     0
102
RTVSPost2010Prop41ColorIndex
 90
       18
102
RTVSPost2010Prop41ColorRGB
 90
        0
102
RTVSPost2010PropOp41
 70
     0
102
RTVSPost2010Prop42
 90
       50
102
RTVSPost2010PropOp42
 70
     0
102
RTVSPost2010Prop43
 90
        3
102
RTVSPost2010PropOp43
 70
     0
102
RTVSPost2010Prop44ColorIndex
 90
        5
102
RTVSPost2010Prop44ColorRGB
 90
      255
102
RTVSPost2010PropOp44
 70
     0
102
RTVSPost2010Prop45
280
     0
102
RTVSPost2010PropOp45
 70
     0
102
RTVSPost2010Prop46
 90
       50
102
RTVSPost2010PropOp46
 70
     0
102
RTVSPost2010Prop47
 90
       50
102
RTVSPost2010PropOp47
 70
     0
102
RTVSPost2010Prop48
 90
       50
102
RTVSPost2010PropOp48
 70
     0
102
RTVSPost2010Prop49
280
     0
102
RTVSPost2010PropOp49
 70
     0
102
RTVSPost2010Prop50
 90
       50
102
RTVSPost2010PropOp50
 70
     0
102
RTVSPost2010Prop51ColorIndex
 90
      256
102
RTVSPost2010Prop51ColorRGB
 90
-16777216
102
RTVSPost2010PropOp51
 70
     0
102
RTVSPost2010Prop52
140
1.0
102
RTVSPost2010PropOp52
 70
     0
102
RTVSPost2010Prop53
 90
        2
102
RTVSPost2010PropOp53
 70
     0
102
RTVSPost2010Prop54
  1
strokes_ogs.tif
102
RTVSPost2010PropOp54
 70
     0
102
RTVSPost2010Prop55
280
     0
102
RTVSPost2010PropOp55
 70
     0
102
RTVSPost2010Prop56
140
1.0
102
RTVSPost2010PropOp56
 70
     0
102
RTVSPost2010Prop57
140
1.0
102
RTVSPost2010PropOp57
 70
     0
  0
XRECORD
  5
17A
102
{ACAD_REACTORS
330
179
102
}
330
179
100
AcDbXrecord
280
     1
102
RTVSPropertyOp0
 70
     1
102
RTVSPropertyOp1
 70
     1
102
RTVSPropertyOp2
 70
     1
102
RTVSPropertyOp3
 70
     1
102
RTVSPropertyOp4
 70
     1
102
RTVSPropertyOp5
 70
     1
102
RTVSPropertyOp6
 70
     1
102
RTVSPropertyOp7
 70
     1
102
RTVSPropertyOp8
 70
     1
102
RTVSPropertyOp9
 70
     1
102
RTVSPropertyOp10
 70
     1
102
RTVSPropertyOp11
 70
     1
102
RTVSPropertyOp12
 70
     1
102
RTVSPropertyOp13
 70
     1
102
RTVSPropertyOp14
 70
     1
102
RTVSPropertyOp15
 70
     1
102
RTVSPropertyOp16
 70
     1
102
RTVSPropertyOp17
 70
     1
102
RTVSPropertyOp18
 70
     1
102
RTVSPropertyOp19
 70
     1
102
RTVSPropertyOp20
 70
     1
102
RTVSPropertyOp21
 70
     1
102
RTVSPropertyOp22
 70
     1
102
RTVSPropertyOp23
 70
     1
102
RTVSPropertyOp24
 70
     1
102
RTVSPropertyOp25
 70
     1
102
RTVSPropertyOp26
 70
     1
102
RTVSPropertyOp27
 70
     1
102
RTVSPropertyOp28
 70
     1
102
RTVSPropertyOp29
 70
     1
102
RTVSPropertyOp30
 70
     1
102
RTVSPropertyOp31
 70
     1
102
RTVSPropertyOp32
 70
     1
102
RTVSPropertyOp33
 70
     1
102
RTVSPropertyOp34
 70
     1
102
RTVSPropertyOp35
 70
     1
102
RTVSPropertyOp36
 70
     1
102
RTVSPropertyOp37
 70
     1
102
RTVSPropertyOp38
 70
     1
102
RTVSPropertyOp39
 70
     1
102
RTVSPropertyOp40
 70
     1
102
RTVSPropertyOp41
 70
     1
102
RTVSPropertyOp42
 70
     1
102
RTVSPropertyOp43
 70
     1
102
RTVSPropertyOp44
 70
     1
102
RTVSPropertyOp45
 70
     1
102
RTVSPropertyOp46
 70
     1
102
RTVSPropertyOp47
 70
     1
102
RTVSPropertyOp48
 70
     1
102
RTVSPropertyOp49
 70
     1
102
RTVSPropertyOp50
 70
     1
102
RTVSPropertyOp51
 70
     0
102
RTVSPropertyOp52
 70
     0
102
RTVSPropertyOp53
 70
     1
102
RTVSPropertyOp54
 70
     1
102
RTVSPropertyOp55
 70
     1
102
RTVSPropertyOp56
 70
     1
102
RTVSPropertyOp57
 70
     1
102
RTVSPost2010Prop28
280
     0
102
RTVSPost2010PropOp28
 70
     1
102
RTVSPost2010Prop29
280
     1
102
RTVSPost2010PropOp29
 70
     1
102
RTVSPost2010Prop30
280
     1
102
RTVSPost2010PropOp30
 70
     1
102
RTVSPost2010Prop31
280
     0
102
RTVSPost2010PropOp31
 70
     1
102
RTVSPost2010Prop32
280
     0
102
RTVSPost2010PropOp32
 70
     1
102
RTVSPost2010Prop33
280
     0
102
RTVSPost2010PropOp33
 70
     1
102
RTVSPost2010Prop34
280
     0
102
RTVSPost2010PropOp34
 70
     1
102
RTVSPost2010Prop35
280
     0
102
RTVSPost2010PropOp35
 70
     1
102
RTVSPost2010Prop36
280
     0
102
RTVSPost2010PropOp36
 70
     1
102
RTVSPost2010Prop37
 90
       50
102
RTVSPost2010PropOp37
 70
     1
102
RTVSPost2010Prop38
140
0.0
102
RTVSPost2010PropOp38
 70
     1
102
RTVSPost2010Prop39
140
1.0
102
RTVSPost2010PropOp39
 70
     1
102
RTVSPost2010Prop40
 90
        0
102
RTVSPost2010PropOp40
 70
     1
102
RTVSPost2010Prop41ColorIndex
 90
       18
102
RTVSPost2010Prop41ColorRGB
 90
        0
102
RTVSPost2010PropOp41
 70
     1
102
RTVSPost2010Prop42
 90
       50
102
RTVSPost2010PropOp42
 70
     1
102
RTVSPost2010Prop43
 90
        3
102
RTVSPost2010PropOp43
 70
     1
102
RTVSPost2010Prop44ColorIndex
 90
        5
102
RTVSPost2010Prop44ColorRGB
 90
      255
102
RTVSPost2010PropOp44
 70
     1
102
RTVSPost2010Prop45
280
     0
102
RTVSPost2010PropOp45
 70
     1
102
RTVSPost2010Prop46
 90
       50
102
RTVSPost2010PropOp46
 70
     1
102
RTVSPost2010Prop47
 90
       50
102
RTVSPost2010PropOp47
 70
     1
102
RTVSPost2010Prop48
 90
       50
102
RTVSPost2010PropOp48
 70
     1
102
RTVSPost2010Prop49
280
     0
102
RTVSPost2010PropOp49
 70
     1
102
RTVSPost2010Prop50
 90
       50
102
RTVSPost2010PropOp50
 70
     1
102
RTVSPost2010Prop51ColorIndex
 90
      256
102
RTVSPost2010Prop51ColorRGB
 90
-16777216
102
RTVSPost2010PropOp51
 70
     0
102
RTVSPost2010Prop52
140
1.0
102
RTVSPost2010PropOp52
 70
     0
102
RTVSPost2010Prop53
 90
        2
102
RTVSPost2010PropOp53
 70
     1
102
RTVSPost2010Prop54
  1
strokes_ogs.tif
102
RTVSPost2010PropOp54
 70
     1
102
RTVSPost2010Prop55
280
     0
102
RTVSPost2010PropOp55
 70
     1
102
RTVSPost2010Prop56
140
1.0
102
RTVSPost2010PropOp56
 70
     1
102
RTVSPost2010Prop57
140
1.0
102
RTVSPost2010PropOp57
 70
     1
  0
XRECORD
  5
182
102
{ACAD_REACTORS
330
181
102
}
330
181
100
AcDbXrecord
280
     1
102
RTVSPropertyOp0
 70
     0
102
RTVSPropertyOp1
 70
     0
102
RTVSPropertyOp2
 70
     0
102
RTVSPropertyOp3
 70
     0
102
RTVSPropertyOp4
 70
     0
102
RTVSPropertyOp5
 70
     0
102
RTVSPropertyOp6
 70
     0
102
RTVSPropertyOp7
 70
     0
102
RTVSPropertyOp8
 70
     0
102
RTVSPropertyOp9
 70
     0
102
RTVSPropertyOp10
 70
     0
102
RTVSPropertyOp11
 70
     0
102
RTVSPropertyOp12
 70
     0
102
RTVSPropertyOp13
 70
     0
102
RTVSPropertyOp14
 70
     2
102
RTVSPropertyOp15
 70
     0
102
RTVSPropertyOp16
 70
     0
102
RTVSPropertyOp17
 70
     0
102
RTVSPropertyOp18
 70
     0
102
RTVSPropertyOp19
 70
     0
102
RTVSPropertyOp20
 70
     0
102
RTVSPropertyOp21
 70
     0
102
RTVSPropertyOp22
 70
     0
102
RTVSPropertyOp23
 70
     0
102
RTVSPropertyOp24
 70
     0
102
RTVSPropertyOp25
 70
     0
102
RTVSPropertyOp26
 70
     0
102
RTVSPropertyOp27
 70
     0
102
RTVSPropertyOp28
 70
     0
102
RTVSPropertyOp29
 70
     0
102
RTVSPropertyOp30
 70
     0
102
RTVSPropertyOp31
 70
     0
102
RTVSPropertyOp32
 70
     0
102
RTVSPropertyOp33
 70
     0
102
RTVSPropertyOp34
 70
     0
102
RTVSPropertyOp35
 70
     0
102
RTVSPropertyOp36
 70
     0
102
RTVSPropertyOp37
 70
     0
102
RTVSPropertyOp38
 70
     0
102
RTVSPropertyOp39
 70
     0
102
RTVSPropertyOp40
 70
     0
102
RTVSPropertyOp41
 70
     0
102
RTVSPropertyOp42
 70
     0
102
RTVSPropertyOp43
 70
     0
102
RTVSPropertyOp44
 70
     0
102
RTVSPropertyOp45
 70
     0
102
RTVSPropertyOp46
 70
     0
102
RTVSPropertyOp47
 70
     0
102
RTVSPropertyOp48
 70
     0
102
RTVSPropertyOp49
 70
     0
102
RTVSPropertyOp50
 70
     0
102
RTVSPropertyOp51
 70
     0
102
RTVSPropertyOp52
 70
     0
102
RTVSPropertyOp53
 70
     0
102
RTVSPropertyOp54
 70
     0
102
RTVSPropertyOp55
 70
     0
102
RTVSPropertyOp56
 70
     0
102
RTVSPropertyOp57
 70
     0
102
RTVSPost2010Prop28
280
     0
102
RTVSPost2010PropOp28
 70
     0
102
RTVSPost2010Prop29
280
     1
102
RTVSPost2010PropOp29
 70
     0
102
RTVSPost2010Prop30
280
     1
102
RTVSPost2010PropOp30
 70
     0
102
RTVSPost2010Prop31
280
     0
102
RTVSPost2010PropOp31
 70
     0
102
RTVSPost2010Prop32
280
     0
102
RTVSPost2010PropOp32
 70
     0
102
RTVSPost2010Prop33
280
     0
102
RTVSPost2010PropOp33
 70
     0
102
RTVSPost2010Prop34
280
     0
102
RTVSPost2010PropOp34
 70
     0
102
RTVSPost2010Prop35
280
     0
102
RTVSPost2010PropOp35
 70
     0
102
RTVSPost2010Prop36
280
     0
102
RTVSPost2010PropOp36
 70
     0
102
RTVSPost2010Prop37
 90
       50
102
RTVSPost2010PropOp37
 70
     0
102
RTVSPost2010Prop38
140
0.0
102
RTVSPost2010PropOp38
 70
     0
102
RTVSPost2010Prop39
140
1.0
102
RTVSPost2010PropOp39
 70
     0
102
RTVSPost2010Prop40
 90
        0
102
RTVSPost2010PropOp40
 70
     0
102
RTVSPost2010Prop41ColorIndex
 90
       18
102
RTVSPost2010Prop41ColorRGB
 90
        0
102
RTVSPost2010PropOp41
 70
     0
102
RTVSPost2010Prop42
 90
       50
102
RTVSPost2010PropOp42
 70
     0
102
RTVSPost2010Prop43
 90
        3
102
RTVSPost2010PropOp43
 70
     0
102
RTVSPost2010Prop44ColorIndex
 90
        5
102
RTVSPost2010Prop44ColorRGB
 90
      255
102
RTVSPost2010PropOp44
 70
     0
102
RTVSPost2010Prop45
280
     0
102
RTVSPost2010PropOp45
 70
     0
102
RTVSPost2010Prop46
 90
       50
102
RTVSPost2010PropOp46
 70
     0
102
RTVSPost2010Prop47
 90
       50
102
RTVSPost2010PropOp47
 70
     0
102
RTVSPost2010Prop48
 90
       50
102
RTVSPost2010PropOp48
 70
     0
102
RTVSPost2010Prop49
280
     0
102
RTVSPost2010PropOp49
 70
     0
102
RTVSPost2010Prop50
 90
       50
102
RTVSPost2010PropOp50
 70
     0
102
RTVSPost2010Prop51ColorIndex
 90
      256
102
RTVSPost2010Prop51ColorRGB
 90
-16777216
102
RTVSPost2010PropOp51
 70
     0
102
RTVSPost2010Prop52
140
1.0
102
RTVSPost2010PropOp52
 70
     0
102
RTVSPost2010Prop53
 90
        2
102
RTVSPost2010PropOp53
 70
     0
102
RTVSPost2010Prop54
  1
strokes_ogs.tif
102
RTVSPost2010PropOp54
 70
     0
102
RTVSPost2010Prop55
280
     0
102
RTVSPost2010PropOp55
 70
     0
102
RTVSPost2010Prop56
140
1.0
102
RTVSPost2010PropOp56
 70
     0
102
RTVSPost2010Prop57
140
1.0
102
RTVSPost2010PropOp57
 70
     0
  0
XRECORD
  5
170
102
{ACAD_REACTORS
330
16F
102
}
330
16F
100
AcDbXrecord
280
     1
102
RTVSPropertyOp0
 70
     1
102
RTVSPropertyOp1
 70
     1
102
RTVSPropertyOp2
 70
     1
102
RTVSPropertyOp3
 70
     1
102
RTVSPropertyOp4
 70
     1
102
RTVSPropertyOp5
 70
     1
102
RTVSPropertyOp6
 70
     1
102
RTVSPropertyOp7
 70
     1
102
RTVSPropertyOp8
 70
     1
102
RTVSPropertyOp9
 70
     1
102
RTVSPropertyOp10
 70
     1
102
RTVSPropertyOp11
 70
     1
102
RTVSPropertyOp12
 70
     1
102
RTVSPropertyOp13
 70
     1
102
RTVSPropertyOp14
 70
     1
102
RTVSPropertyOp15
 70
     1
102
RTVSPropertyOp16
 70
     1
102
RTVSPropertyOp17
 70
     1
102
RTVSPropertyOp18
 70
     1
102
RTVSPropertyOp19
 70
     1
102
RTVSPropertyOp20
 70
     1
102
RTVSPropertyOp21
 70
     1
102
RTVSPropertyOp22
 70
     1
102
RTVSPropertyOp23
 70
     1
102
RTVSPropertyOp24
 70
     1
102
RTVSPropertyOp25
 70
     1
102
RTVSPropertyOp26
 70
     1
102
RTVSPropertyOp27
 70
     1
102
RTVSPropertyOp28
 70
     1
102
RTVSPropertyOp29
 70
     1
102
RTVSPropertyOp30
 70
     1
102
RTVSPropertyOp31
 70
     1
102
RTVSPropertyOp32
 70
     1
102
RTVSPropertyOp33
 70
     1
102
RTVSPropertyOp34
 70
     1
102
RTVSPropertyOp35
 70
     1
102
RTVSPropertyOp36
 70
     1
102
RTVSPropertyOp37
 70
     1
102
RTVSPropertyOp38
 70
     1
102
RTVSPropertyOp39
 70
     1
102
RTVSPropertyOp40
 70
     1
102
RTVSPropertyOp41
 70
     1
102
RTVSPropertyOp42
 70
     1
102
RTVSPropertyOp43
 70
     1
102
RTVSPropertyOp44
 70
     1
102
RTVSPropertyOp45
 70
     1
102
RTVSPropertyOp46
 70
     1
102
RTVSPropertyOp47
 70
     1
102
RTVSPropertyOp48
 70
     1
102
RTVSPropertyOp49
 70
     1
102
RTVSPropertyOp50
 70
     1
102
RTVSPropertyOp51
 70
     0
102
RTVSPropertyOp52
 70
     0
102
RTVSPropertyOp53
 70
     1
102
RTVSPropertyOp54
 70
     1
102
RTVSPropertyOp55
 70
     1
102
RTVSPropertyOp56
 70
     1
102
RTVSPropertyOp57
 70
     1
102
RTVSPost2010Prop28
280
     0
102
RTVSPost2010PropOp28
 70
     1
102
RTVSPost2010Prop29
280
     1
102
RTVSPost2010PropOp29
 70
     1
102
RTVSPost2010Prop30
280
     1
102
RTVSPost2010PropOp30
 70
     1
102
RTVSPost2010Prop31
280
     0
102
RTVSPost2010PropOp31
 70
     1
102
RTVSPost2010Prop32
280
     0
102
RTVSPost2010PropOp32
 70
     1
102
RTVSPost2010Prop33
280
     0
102
RTVSPost2010PropOp33
 70
     1
102
RTVSPost2010Prop34
280
     0
102
RTVSPost2010PropOp34
 70
     1
102
RTVSPost2010Prop35
280
     0
102
RTVSPost2010PropOp35
 70
     1
102
RTVSPost2010Prop36
280
     0
102
RTVSPost2010PropOp36
 70
     1
102
RTVSPost2010Prop37
 90
       50
102
RTVSPost2010PropOp37
 70
     1
102
RTVSPost2010Prop38
140
0.0
102
RTVSPost2010PropOp38
 70
     1
102
RTVSPost2010Prop39
140
1.0
102
RTVSPost2010PropOp39
 70
     1
102
RTVSPost2010Prop40
 90
        0
102
RTVSPost2010PropOp40
 70
     1
102
RTVSPost2010Prop41ColorIndex
 90
       18
102
RTVSPost2010Prop41ColorRGB
 90
        0
102
RTVSPost2010PropOp41
 70
     1
102
RTVSPost2010Prop42
 90
       50
102
RTVSPost2010PropOp42
 70
     1
102
RTVSPost2010Prop43
 90
        3
102
RTVSPost2010PropOp43
 70
     1
102
RTVSPost2010Prop44ColorIndex
 90
        5
102
RTVSPost2010Prop44ColorRGB
 90
      255
102
RTVSPost2010PropOp44
 70
     1
102
RTVSPost2010Prop45
280
     0
102
RTVSPost2010PropOp45
 70
     1
102
RTVSPost2010Prop46
 90
       50
102
RTVSPost2010PropOp46
 70
     1
102
RTVSPost2010Prop47
 90
       50
102
RTVSPost2010PropOp47
 70
     1
102
RTVSPost2010Prop48
 90
       50
102
RTVSPost2010PropOp48
 70
     1
102
RTVSPost2010Prop49
280
     0
102
RTVSPost2010PropOp49
 70
     1
102
RTVSPost2010Prop50
 90
       50
102
RTVSPost2010PropOp50
 70
     1
102
RTVSPost2010Prop51ColorIndex
 90
      256
102
RTVSPost2010Prop51ColorRGB
 90
-16777216
102
RTVSPost2010PropOp51
 70
     0
102
RTVSPost2010Prop52
140
1.0
102
RTVSPost2010PropOp52
 70
     0
102
RTVSPost2010Prop53
 90
        2
102
RTVSPost2010PropOp53
 70
     1
102
RTVSPost2010Prop54
  1
strokes_ogs.tif
102
RTVSPost2010PropOp54
 70
     1
102
RTVSPost2010Prop55
280
     0
102
RTVSPost2010PropOp55
 70
     1
102
RTVSPost2010Prop56
140
1.0
102
RTVSPost2010PropOp56
 70
     1
102
RTVSPost2010Prop57
140
1.0
102
RTVSPost2010PropOp57
 70
     1
  0
XRECORD
  5
18E
102
{ACAD_REACTORS
330
18D
102
}
330
18D
100
AcDbXrecord
280
     1
102
RTVSPropertyOp0
 70
     1
102
RTVSPropertyOp1
 70
     1
102
RTVSPropertyOp2
 70
     1
102
RTVSPropertyOp3
 70
     1
102
RTVSPropertyOp4
 70
     1
102
RTVSPropertyOp5
 70
     1
102
RTVSPropertyOp6
 70
     1
102
RTVSPropertyOp7
 70
     1
102
RTVSPropertyOp8
 70
     1
102
RTVSPropertyOp9
 70
     1
102
RTVSPropertyOp10
 70
     1
102
RTVSPropertyOp11
 70
     1
102
RTVSPropertyOp12
 70
     1
102
RTVSPropertyOp13
 70
     1
102
RTVSPropertyOp14
 70
     1
102
RTVSPropertyOp15
 70
     1
102
RTVSPropertyOp16
 70
     1
102
RTVSPropertyOp17
 70
     1
102
RTVSPropertyOp18
 70
     1
102
RTVSPropertyOp19
 70
     1
102
RTVSPropertyOp20
 70
     1
102
RTVSPropertyOp21
 70
     1
102
RTVSPropertyOp22
 70
     1
102
RTVSPropertyOp23
 70
     1
102
RTVSPropertyOp24
 70
     1
102
RTVSPropertyOp25
 70
     1
102
RTVSPropertyOp26
 70
     1
102
RTVSPropertyOp27
 70
     1
102
RTVSPropertyOp28
 70
     1
102
RTVSPropertyOp29
 70
     1
102
RTVSPropertyOp30
 70
     1
102
RTVSPropertyOp31
 70
     1
102
RTVSPropertyOp32
 70
     1
102
RTVSPropertyOp33
 70
     1
102
RTVSPropertyOp34
 70
     1
102
RTVSPropertyOp35
 70
     1
102
RTVSPropertyOp36
 70
     1
102
RTVSPropertyOp37
 70
     1
102
RTVSPropertyOp38
 70
     1
102
RTVSPropertyOp39
 70
     1
102
RTVSPropertyOp40
 70
     1
102
RTVSPropertyOp41
 70
     1
102
RTVSPropertyOp42
 70
     1
102
RTVSPropertyOp43
 70
     1
102
RTVSPropertyOp44
 70
     1
102
RTVSPropertyOp45
 70
     1
102
RTVSPropertyOp46
 70
     1
102
RTVSPropertyOp47
 70
     1
102
RTVSPropertyOp48
 70
     1
102
RTVSPropertyOp49
 70
     1
102
RTVSPropertyOp50
 70
     1
102
RTVSPropertyOp51
 70
     0
102
RTVSPropertyOp52
 70
     0
102
RTVSPropertyOp53
 70
     1
102
RTVSPropertyOp54
 70
     1
102
RTVSPropertyOp55
 70
     1
102
RTVSPropertyOp56
 70
     1
102
RTVSPropertyOp57
 70
     1
102
RTVSPost2010Prop28
280
     0
102
RTVSPost2010PropOp28
 70
     1
102
RTVSPost2010Prop29
280
     1
102
RTVSPost2010PropOp29
 70
     1
102
RTVSPost2010Prop30
280
     1
102
RTVSPost2010PropOp30
 70
     1
102
RTVSPost2010Prop31
280
     0
102
RTVSPost2010PropOp31
 70
     1
102
RTVSPost2010Prop32
280
     0
102
RTVSPost2010PropOp32
 70
     1
102
RTVSPost2010Prop33
280
     0
102
RTVSPost2010PropOp33
 70
     1
102
RTVSPost2010Prop34
280
     0
102
RTVSPost2010PropOp34
 70
     1
102
RTVSPost2010Prop35
280
     0
102
RTVSPost2010PropOp35
 70
     1
102
RTVSPost2010Prop36
280
     0
102
RTVSPost2010PropOp36
 70
     1
102
RTVSPost2010Prop37
 90
       50
102
RTVSPost2010PropOp37
 70
     1
102
RTVSPost2010Prop38
140
0.0
102
RTVSPost2010PropOp38
 70
     1
102
RTVSPost2010Prop39
140
1.0
102
RTVSPost2010PropOp39
 70
     1
102
RTVSPost2010Prop40
 90
        0
102
RTVSPost2010PropOp40
 70
     1
102
RTVSPost2010Prop41ColorIndex
 90
       18
102
RTVSPost2010Prop41ColorRGB
 90
        0
102
RTVSPost2010PropOp41
 70
     1
102
RTVSPost2010Prop42
 90
       50
102
RTVSPost2010PropOp42
 70
     1
102
RTVSPost2010Prop43
 90
        3
102
RTVSPost2010PropOp43
 70
     1
102
RTVSPost2010Prop44ColorIndex
 90
        5
102
RTVSPost2010Prop44ColorRGB
 90
      255
102
RTVSPost2010PropOp44
 70
     1
102
RTVSPost2010Prop45
280
     0
102
RTVSPost2010PropOp45
 70
     1
102
RTVSPost2010Prop46
 90
       50
102
RTVSPost2010PropOp46
 70
     1
102
RTVSPost2010Prop47
 90
       50
102
RTVSPost2010PropOp47
 70
     1
102
RTVSPost2010Prop48
 90
       50
102
RTVSPost2010PropOp48
 70
     1
102
RTVSPost2010Prop49
280
     0
102
RTVSPost2010PropOp49
 70
     1
102
RTVSPost2010Prop50
 90
       50
102
RTVSPost2010PropOp50
 70
     1
102
RTVSPost2010Prop51ColorIndex
 90
      256
102
RTVSPost2010Prop51ColorRGB
 90
-16777216
102
RTVSPost2010PropOp51
 70
     0
102
RTVSPost2010Prop52
140
1.0
102
RTVSPost2010PropOp52
 70
     0
102
RTVSPost2010Prop53
 90
        2
102
RTVSPost2010PropOp53
 70
     1
102
RTVSPost2010Prop54
  1
strokes_ogs.tif
102
RTVSPost2010PropOp54
 70
     1
102
RTVSPost2010Prop55
280
     0
102
RTVSPost2010PropOp55
 70
     1
102
RTVSPost2010Prop56
140
1.0
102
RTVSPost2010PropOp56
 70
     1
102
RTVSPost2010Prop57
140
1.0
102
RTVSPost2010PropOp57
 70
     1
  0
XRECORD
  5
18C
102
{ACAD_REACTORS
330
18B
102
}
330
18B
100
AcDbXrecord
280
     1
102
RTVSPropertyOp0
 70
     1
102
RTVSPropertyOp1
 70
     1
102
RTVSPropertyOp2
 70
     1
102
RTVSPropertyOp3
 70
     1
102
RTVSPropertyOp4
 70
     1
102
RTVSPropertyOp5
 70
     1
102
RTVSPropertyOp6
 70
     1
102
RTVSPropertyOp7
 70
     1
102
RTVSPropertyOp8
 70
     1
102
RTVSPropertyOp9
 70
     1
102
RTVSPropertyOp10
 70
     1
102
RTVSPropertyOp11
 70
     1
102
RTVSPropertyOp12
 70
     1
102
RTVSPropertyOp13
 70
     1
102
RTVSPropertyOp14
 70
     1
102
RTVSPropertyOp15
 70
     1
102
RTVSPropertyOp16
 70
     1
102
RTVSPropertyOp17
 70
     1
102
RTVSPropertyOp18
 70
     1
102
RTVSPropertyOp19
 70
     1
102
RTVSPropertyOp20
 70
     1
102
RTVSPropertyOp21
 70
     1
102
RTVSPropertyOp22
 70
     1
102
RTVSPropertyOp23
 70
     1
102
RTVSPropertyOp24
 70
     1
102
RTVSPropertyOp25
 70
     1
102
RTVSPropertyOp26
 70
     1
102
RTVSPropertyOp27
 70
     1
102
RTVSPropertyOp28
 70
     1
102
RTVSPropertyOp29
 70
     1
102
RTVSPropertyOp30
 70
     1
102
RTVSPropertyOp31
 70
     1
102
RTVSPropertyOp32
 70
     1
102
RTVSPropertyOp33
 70
     1
102
RTVSPropertyOp34
 70
     1
102
RTVSPropertyOp35
 70
     1
102
RTVSPropertyOp36
 70
     1
102
RTVSPropertyOp37
 70
     1
102
RTVSPropertyOp38
 70
     1
102
RTVSPropertyOp39
 70
     1
102
RTVSPropertyOp40
 70
     1
102
RTVSPropertyOp41
 70
     1
102
RTVSPropertyOp42
 70
     1
102
RTVSPropertyOp43
 70
     1
102
RTVSPropertyOp44
 70
     1
102
RTVSPropertyOp45
 70
     1
102
RTVSPropertyOp46
 70
     1
102
RTVSPropertyOp47
 70
     1
102
RTVSPropertyOp48
 70
     1
102
RTVSPropertyOp49
 70
     1
102
RTVSPropertyOp50
 70
     1
102
RTVSPropertyOp51
 70
     0
102
RTVSPropertyOp52
 70
     0
102
RTVSPropertyOp53
 70
     1
102
RTVSPropertyOp54
 70
     1
102
RTVSPropertyOp55
 70
     1
102
RTVSPropertyOp56
 70
     1
102
RTVSPropertyOp57
 70
     1
102
RTVSPost2010Prop28
280
     0
102
RTVSPost2010PropOp28
 70
     1
102
RTVSPost2010Prop29
280
     1
102
RTVSPost2010PropOp29
 70
     1
102
RTVSPost2010Prop30
280
     1
102
RTVSPost2010PropOp30
 70
     1
102
RTVSPost2010Prop31
280
     0
102
RTVSPost2010PropOp31
 70
     1
102
RTVSPost2010Prop32
280
     0
102
RTVSPost2010PropOp32
 70
     1
102
RTVSPost2010Prop33
280
     0
102
RTVSPost2010PropOp33
 70
     1
102
RTVSPost2010Prop34
280
     0
102
RTVSPost2010PropOp34
 70
     1
102
RTVSPost2010Prop35
280
     0
102
RTVSPost2010PropOp35
 70
     1
102
RTVSPost2010Prop36
280
     0
102
RTVSPost2010PropOp36
 70
     1
102
RTVSPost2010Prop37
 90
       50
102
RTVSPost2010PropOp37
 70
     1
102
RTVSPost2010Prop38
140
0.0
102
RTVSPost2010PropOp38
 70
     1
102
RTVSPost2010Prop39
140
1.0
102
RTVSPost2010PropOp39
 70
     1
102
RTVSPost2010Prop40
 90
        0
102
RTVSPost2010PropOp40
 70
     1
102
RTVSPost2010Prop41ColorIndex
 90
       18
102
RTVSPost2010Prop41ColorRGB
 90
        0
102
RTVSPost2010PropOp41
 70
     1
102
RTVSPost2010Prop42
 90
       50
102
RTVSPost2010PropOp42
 70
     1
102
RTVSPost2010Prop43
 90
        3
102
RTVSPost2010PropOp43
 70
     1
102
RTVSPost2010Prop44ColorIndex
 90
        5
102
RTVSPost2010Prop44ColorRGB
 90
      255
102
RTVSPost2010PropOp44
 70
     1
102
RTVSPost2010Prop45
280
     0
102
RTVSPost2010PropOp45
 70
     1
102
RTVSPost2010Prop46
 90
       50
102
RTVSPost2010PropOp46
 70
     1
102
RTVSPost2010Prop47
 90
       50
102
RTVSPost2010PropOp47
 70
     1
102
RTVSPost2010Prop48
 90
       50
102
RTVSPost2010PropOp48
 70
     1
102
RTVSPost2010Prop49
280
     0
102
RTVSPost2010PropOp49
 70
     1
102
RTVSPost2010Prop50
 90
       50
102
RTVSPost2010PropOp50
 70
     1
102
RTVSPost2010Prop51ColorIndex
 90
      256
102
RTVSPost2010Prop51ColorRGB
 90
-16777216
102
RTVSPost2010PropOp51
 70
     0
102
RTVSPost2010Prop52
140
1.0
102
RTVSPost2010PropOp52
 70
     0
102
RTVSPost2010Prop53
 90
        2
102
RTVSPost2010PropOp53
 70
     1
102
RTVSPost2010Prop54
  1
strokes_ogs.tif
102
RTVSPost2010PropOp54
 70
     1
102
RTVSPost2010Prop55
280
     0
102
RTVSPost2010PropOp55
 70
     1
102
RTVSPost2010Prop56
140
1.0
102
RTVSPost2010PropOp56
 70
     1
102
RTVSPost2010Prop57
140
1.0
102
RTVSPost2010PropOp57
 70
     1
  0
XRECORD
  5
186
102
{ACAD_REACTORS
330
185
102
}
330
185
100
AcDbXrecord
280
     1
102
RTVSPropertyOp0
 70
     1
102
RTVSPropertyOp1
 70
     1
102
RTVSPropertyOp2
 70
     1
102
RTVSPropertyOp3
 70
     1
102
RTVSPropertyOp4
 70
     1
102
RTVSPropertyOp5
 70
     1
102
RTVSPropertyOp6
 70
     1
102
RTVSPropertyOp7
 70
     1
102
RTVSPropertyOp8
 70
     1
102
RTVSPropertyOp9
 70
     1
102
RTVSPropertyOp10
 70
     1
102
RTVSPropertyOp11
 70
     1
102
RTVSPropertyOp12
 70
     1
102
RTVSPropertyOp13
 70
     1
102
RTVSPropertyOp14
 70
     1
102
RTVSPropertyOp15
 70
     1
102
RTVSPropertyOp16
 70
     1
102
RTVSPropertyOp17
 70
     1
102
RTVSPropertyOp18
 70
     1
102
RTVSPropertyOp19
 70
     1
102
RTVSPropertyOp20
 70
     1
102
RTVSPropertyOp21
 70
     1
102
RTVSPropertyOp22
 70
     1
102
RTVSPropertyOp23
 70
     1
102
RTVSPropertyOp24
 70
     1
102
RTVSPropertyOp25
 70
     1
102
RTVSPropertyOp26
 70
     1
102
RTVSPropertyOp27
 70
     1
102
RTVSPropertyOp28
 70
     1
102
RTVSPropertyOp29
 70
     1
102
RTVSPropertyOp30
 70
     1
102
RTVSPropertyOp31
 70
     1
102
RTVSPropertyOp32
 70
     1
102
RTVSPropertyOp33
 70
     1
102
RTVSPropertyOp34
 70
     1
102
RTVSPropertyOp35
 70
     1
102
RTVSPropertyOp36
 70
     1
102
RTVSPropertyOp37
 70
     1
102
RTVSPropertyOp38
 70
     1
102
RTVSPropertyOp39
 70
     1
102
RTVSPropertyOp40
 70
     1
102
RTVSPropertyOp41
 70
     1
102
RTVSPropertyOp42
 70
     1
102
RTVSPropertyOp43
 70
     1
102
RTVSPropertyOp44
 70
     1
102
RTVSPropertyOp45
 70
     1
102
RTVSPropertyOp46
 70
     1
102
RTVSPropertyOp47
 70
     1
102
RTVSPropertyOp48
 70
     1
102
RTVSPropertyOp49
 70
     1
102
RTVSPropertyOp50
 70
     1
102
RTVSPropertyOp51
 70
     0
102
RTVSPropertyOp52
 70
     0
102
RTVSPropertyOp53
 70
     1
102
RTVSPropertyOp54
 70
     1
102
RTVSPropertyOp55
 70
     1
102
RTVSPropertyOp56
 70
     1
102
RTVSPropertyOp57
 70
     1
102
RTVSPost2010Prop28
280
     0
102
RTVSPost2010PropOp28
 70
     1
102
RTVSPost2010Prop29
280
     1
102
RTVSPost2010PropOp29
 70
     1
102
RTVSPost2010Prop30
280
     1
102
RTVSPost2010PropOp30
 70
     1
102
RTVSPost2010Prop31
280
     0
102
RTVSPost2010PropOp31
 70
     1
102
RTVSPost2010Prop32
280
     0
102
RTVSPost2010PropOp32
 70
     1
102
RTVSPost2010Prop33
280
     0
102
RTVSPost2010PropOp33
 70
     1
102
RTVSPost2010Prop34
280
     0
102
RTVSPost2010PropOp34
 70
     1
102
RTVSPost2010Prop35
280
     0
102
RTVSPost2010PropOp35
 70
     1
102
RTVSPost2010Prop36
280
     0
102
RTVSPost2010PropOp36
 70
     1
102
RTVSPost2010Prop37
 90
       50
102
RTVSPost2010PropOp37
 70
     1
102
RTVSPost2010Prop38
140
0.0
102
RTVSPost2010PropOp38
 70
     1
102
RTVSPost2010Prop39
140
1.0
102
RTVSPost2010PropOp39
 70
     1
102
RTVSPost2010Prop40
 90
        0
102
RTVSPost2010PropOp40
 70
     1
102
RTVSPost2010Prop41ColorIndex
 90
       18
102
RTVSPost2010Prop41ColorRGB
 90
        0
102
RTVSPost2010PropOp41
 70
     1
102
RTVSPost2010Prop42
 90
       50
102
RTVSPost2010PropOp42
 70
     1
102
RTVSPost2010Prop43
 90
        3
102
RTVSPost2010PropOp43
 70
     1
102
RTVSPost2010Prop44ColorIndex
 90
        5
102
RTVSPost2010Prop44ColorRGB
 90
      255
102
RTVSPost2010PropOp44
 70
     1
102
RTVSPost2010Prop45
280
     0
102
RTVSPost2010PropOp45
 70
     1
102
RTVSPost2010Prop46
 90
       50
102
RTVSPost2010PropOp46
 70
     1
102
RTVSPost2010Prop47
 90
       50
102
RTVSPost2010PropOp47
 70
     1
102
RTVSPost2010Prop48
 90
       50
102
RTVSPost2010PropOp48
 70
     1
102
RTVSPost2010Prop49
280
     0
102
RTVSPost2010PropOp49
 70
     1
102
RTVSPost2010Prop50
 90
       50
102
RTVSPost2010PropOp50
 70
     1
102
RTVSPost2010Prop51ColorIndex
 90
      256
102
RTVSPost2010Prop51ColorRGB
 90
-16777216
102
RTVSPost2010PropOp51
 70
     0
102
RTVSPost2010Prop52
140
1.0
102
RTVSPost2010PropOp52
 70
     0
102
RTVSPost2010Prop53
 90
        2
102
RTVSPost2010PropOp53
 70
     1
102
RTVSPost2010Prop54
  1
strokes_ogs.tif
102
RTVSPost2010PropOp54
 70
     1
102
RTVSPost2010Prop55
280
     0
102
RTVSPost2010PropOp55
 70
     1
102
RTVSPost2010Prop56
140
1.0
102
RTVSPost2010PropOp56
 70
     1
102
RTVSPost2010Prop57
140
1.0
102
RTVSPost2010PropOp57
 70
     1
  0
XRECORD
  5
188
102
{ACAD_REACTORS
330
187
102
}
330
187
100
AcDbXrecord
280
     1
102
RTVSPropertyOp0
 70
     1
102
RTVSPropertyOp1
 70
     1
102
RTVSPropertyOp2
 70
     1
102
RTVSPropertyOp3
 70
     1
102
RTVSPropertyOp4
 70
     1
102
RTVSPropertyOp5
 70
     1
102
RTVSPropertyOp6
 70
     1
102
RTVSPropertyOp7
 70
     1
102
RTVSPropertyOp8
 70
     1
102
RTVSPropertyOp9
 70
     1
102
RTVSPropertyOp10
 70
     1
102
RTVSPropertyOp11
 70
     1
102
RTVSPropertyOp12
 70
     1
102
RTVSPropertyOp13
 70
     1
102
RTVSPropertyOp14
 70
     1
102
RTVSPropertyOp15
 70
     1
102
RTVSPropertyOp16
 70
     1
102
RTVSPropertyOp17
 70
     1
102
RTVSPropertyOp18
 70
     1
102
RTVSPropertyOp19
 70
     1
102
RTVSPropertyOp20
 70
     1
102
RTVSPropertyOp21
 70
     1
102
RTVSPropertyOp22
 70
     1
102
RTVSPropertyOp23
 70
     1
102
RTVSPropertyOp24
 70
     1
102
RTVSPropertyOp25
 70
     1
102
RTVSPropertyOp26
 70
     1
102
RTVSPropertyOp27
 70
     1
102
RTVSPropertyOp28
 70
     1
102
RTVSPropertyOp29
 70
     1
102
RTVSPropertyOp30
 70
     1
102
RTVSPropertyOp31
 70
     1
102
RTVSPropertyOp32
 70
     1
102
RTVSPropertyOp33
 70
     1
102
RTVSPropertyOp34
 70
     1
102
RTVSPropertyOp35
 70
     1
102
RTVSPropertyOp36
 70
     1
102
RTVSPropertyOp37
 70
     1
102
RTVSPropertyOp38
 70
     1
102
RTVSPropertyOp39
 70
     1
102
RTVSPropertyOp40
 70
     1
102
RTVSPropertyOp41
 70
     1
102
RTVSPropertyOp42
 70
     1
102
RTVSPropertyOp43
 70
     1
102
RTVSPropertyOp44
 70
     1
102
RTVSPropertyOp45
 70
     1
102
RTVSPropertyOp46
 70
     1
102
RTVSPropertyOp47
 70
     1
102
RTVSPropertyOp48
 70
     1
102
RTVSPropertyOp49
 70
     1
102
RTVSPropertyOp50
 70
     1
102
RTVSPropertyOp51
 70
     0
102
RTVSPropertyOp52
 70
     0
102
RTVSPropertyOp53
 70
     1
102
RTVSPropertyOp54
 70
     1
102
RTVSPropertyOp55
 70
     1
102
RTVSPropertyOp56
 70
     1
102
RTVSPropertyOp57
 70
     1
102
RTVSPost2010Prop28
280
     0
102
RTVSPost2010PropOp28
 70
     1
102
RTVSPost2010Prop29
280
     1
102
RTVSPost2010PropOp29
 70
     1
102
RTVSPost2010Prop30
280
     1
102
RTVSPost2010PropOp30
 70
     1
102
RTVSPost2010Prop31
280
     0
102
RTVSPost2010PropOp31
 70
     1
102
RTVSPost2010Prop32
280
     0
102
RTVSPost2010PropOp32
 70
     1
102
RTVSPost2010Prop33
280
     0
102
RTVSPost2010PropOp33
 70
     1
102
RTVSPost2010Prop34
280
     0
102
RTVSPost2010PropOp34
 70
     1
102
RTVSPost2010Prop35
280
     0
102
RTVSPost2010PropOp35
 70
     1
102
RTVSPost2010Prop36
280
     0
102
RTVSPost2010PropOp36
 70
     1
102
RTVSPost2010Prop37
 90
       50
102
RTVSPost2010PropOp37
 70
     1
102
RTVSPost2010Prop38
140
0.0
102
RTVSPost2010PropOp38
 70
     1
102
RTVSPost2010Prop39
140
1.0
102
RTVSPost2010PropOp39
 70
     1
102
RTVSPost2010Prop40
 90
        0
102
RTVSPost2010PropOp40
 70
     1
102
RTVSPost2010Prop41ColorIndex
 90
       18
102
RTVSPost2010Prop41ColorRGB
 90
        0
102
RTVSPost2010PropOp41
 70
     1
102
RTVSPost2010Prop42
 90
       50
102
RTVSPost2010PropOp42
 70
     1
102
RTVSPost2010Prop43
 90
        3
102
RTVSPost2010PropOp43
 70
     1
102
RTVSPost2010Prop44ColorIndex
 90
        5
102
RTVSPost2010Prop44ColorRGB
 90
      255
102
RTVSPost2010PropOp44
 70
     1
102
RTVSPost2010Prop45
280
     0
102
RTVSPost2010PropOp45
 70
     1
102
RTVSPost2010Prop46
 90
       50
102
RTVSPost2010PropOp46
 70
     1
102
RTVSPost2010Prop47
 90
       50
102
RTVSPost2010PropOp47
 70
     1
102
RTVSPost2010Prop48
 90
       50
102
RTVSPost2010PropOp48
 70
     1
102
RTVSPost2010Prop49
280
     0
102
RTVSPost2010PropOp49
 70
     1
102
RTVSPost2010Prop50
 90
       50
102
RTVSPost2010PropOp50
 70
     1
102
RTVSPost2010Prop51ColorIndex
 90
      256
102
RTVSPost2010Prop51ColorRGB
 90
-16777216
102
RTVSPost2010PropOp51
 70
     0
102
RTVSPost2010Prop52
140
1.0
102
RTVSPost2010PropOp52
 70
     0
102
RTVSPost2010Prop53
 90
        2
102
RTVSPost2010PropOp53
 70
     1
102
RTVSPost2010Prop54
  1
strokes_ogs.tif
102
RTVSPost2010PropOp54
 70
     1
102
RTVSPost2010Prop55
280
     0
102
RTVSPost2010PropOp55
 70
     1
102
RTVSPost2010Prop56
140
1.0
102
RTVSPost2010PropOp56
 70
     1
102
RTVSPost2010Prop57
140
1.0
102
RTVSPost2010PropOp57
 70
     1
  0
XRECORD
  5
178
102
{ACAD_REACTORS
330
177
102
}
330
177
100
AcDbXrecord
280
     1
102
RTVSPropertyOp0
 70
     1
102
RTVSPropertyOp1
 70
     1
102
RTVSPropertyOp2
 70
     1
102
RTVSPropertyOp3
 70
     1
102
RTVSPropertyOp4
 70
     1
102
RTVSPropertyOp5
 70
     1
102
RTVSPropertyOp6
 70
     1
102
RTVSPropertyOp7
 70
     1
102
RTVSPropertyOp8
 70
     1
102
RTVSPropertyOp9
 70
     1
102
RTVSPropertyOp10
 70
     1
102
RTVSPropertyOp11
 70
     1
102
RTVSPropertyOp12
 70
     1
102
RTVSPropertyOp13
 70
     1
102
RTVSPropertyOp14
 70
     1
102
RTVSPropertyOp15
 70
     1
102
RTVSPropertyOp16
 70
     1
102
RTVSPropertyOp17
 70
     1
102
RTVSPropertyOp18
 70
     1
102
RTVSPropertyOp19
 70
     1
102
RTVSPropertyOp20
 70
     1
102
RTVSPropertyOp21
 70
     1
102
RTVSPropertyOp22
 70
     1
102
RTVSPropertyOp23
 70
     1
102
RTVSPropertyOp24
 70
     1
102
RTVSPropertyOp25
 70
     1
102
RTVSPropertyOp26
 70
     1
102
RTVSPropertyOp27
 70
     1
102
RTVSPropertyOp28
 70
     1
102
RTVSPropertyOp29
 70
     1
102
RTVSPropertyOp30
 70
     1
102
RTVSPropertyOp31
 70
     1
102
RTVSPropertyOp32
 70
     1
102
RTVSPropertyOp33
 70
     1
102
RTVSPropertyOp34
 70
     1
102
RTVSPropertyOp35
 70
     1
102
RTVSPropertyOp36
 70
     1
102
RTVSPropertyOp37
 70
     1
102
RTVSPropertyOp38
 70
     1
102
RTVSPropertyOp39
 70
     1
102
RTVSPropertyOp40
 70
     1
102
RTVSPropertyOp41
 70
     1
102
RTVSPropertyOp42
 70
     1
102
RTVSPropertyOp43
 70
     1
102
RTVSPropertyOp44
 70
     1
102
RTVSPropertyOp45
 70
     1
102
RTVSPropertyOp46
 70
     1
102
RTVSPropertyOp47
 70
     1
102
RTVSPropertyOp48
 70
     1
102
RTVSPropertyOp49
 70
     1
102
RTVSPropertyOp50
 70
     1
102
RTVSPropertyOp51
 70
     0
102
RTVSPropertyOp52
 70
     0
102
RTVSPropertyOp53
 70
     1
102
RTVSPropertyOp54
 70
     1
102
RTVSPropertyOp55
 70
     1
102
RTVSPropertyOp56
 70
     1
102
RTVSPropertyOp57
 70
     1
102
RTVSPost2010Prop28
280
     0
102
RTVSPost2010PropOp28
 70
     1
102
RTVSPost2010Prop29
280
     1
102
RTVSPost2010PropOp29
 70
     1
102
RTVSPost2010Prop30
280
     1
102
RTVSPost2010PropOp30
 70
     1
102
RTVSPost2010Prop31
280
     0
102
RTVSPost2010PropOp31
 70
     1
102
RTVSPost2010Prop32
280
     0
102
RTVSPost2010PropOp32
 70
     1
102
RTVSPost2010Prop33
280
     0
102
RTVSPost2010PropOp33
 70
     1
102
RTVSPost2010Prop34
280
     0
102
RTVSPost2010PropOp34
 70
     1
102
RTVSPost2010Prop35
280
     0
102
RTVSPost2010PropOp35
 70
     1
102
RTVSPost2010Prop36
280
     0
102
RTVSPost2010PropOp36
 70
     1
102
RTVSPost2010Prop37
 90
       50
102
RTVSPost2010PropOp37
 70
     1
102
RTVSPost2010Prop38
140
0.0
102
RTVSPost2010PropOp38
 70
     1
102
RTVSPost2010Prop39
140
1.0
102
RTVSPost2010PropOp39
 70
     1
102
RTVSPost2010Prop40
 90
        0
102
RTVSPost2010PropOp40
 70
     1
102
RTVSPost2010Prop41ColorIndex
 90
       18
102
RTVSPost2010Prop41ColorRGB
 90
        0
102
RTVSPost2010PropOp41
 70
     1
102
RTVSPost2010Prop42
 90
       50
102
RTVSPost2010PropOp42
 70
     1
102
RTVSPost2010Prop43
 90
        3
102
RTVSPost2010PropOp43
 70
     1
102
RTVSPost2010Prop44ColorIndex
 90
        5
102
RTVSPost2010Prop44ColorRGB
 90
      255
102
RTVSPost2010PropOp44
 70
     1
102
RTVSPost2010Prop45
280
     0
102
RTVSPost2010PropOp45
 70
     1
102
RTVSPost2010Prop46
 90
       50
102
RTVSPost2010PropOp46
 70
     1
102
RTVSPost2010Prop47
 90
       50
102
RTVSPost2010PropOp47
 70
     1
102
RTVSPost2010Prop48
 90
       50
102
RTVSPost2010PropOp48
 70
     1
102
RTVSPost2010Prop49
280
     0
102
RTVSPost2010PropOp49
 70
     1
102
RTVSPost2010Prop50
 90
       50
102
RTVSPost2010PropOp50
 70
     1
102
RTVSPost2010Prop51ColorIndex
 90
      256
102
RTVSPost2010Prop51ColorRGB
 90
-16777216
102
RTVSPost2010PropOp51
 70
     0
102
RTVSPost2010Prop52
140
1.0
102
RTVSPost2010PropOp52
 70
     0
102
RTVSPost2010Prop53
 90
        2
102
RTVSPost2010PropOp53
 70
     1
102
RTVSPost2010Prop54
  1
strokes_ogs.tif
102
RTVSPost2010PropOp54
 70
     1
102
RTVSPost2010Prop55
280
     0
102
RTVSPost2010PropOp55
 70
     1
102
RTVSPost2010Prop56
140
1.0
102
RTVSPost2010PropOp56
 70
     1
102
RTVSPost2010Prop57
140
1.0
102
RTVSPost2010PropOp57
 70
     1
  0
XRECORD
  5
16A
102
{ACAD_REACTORS
330
169
102
}
330
169
100
AcDbXrecord
280
     1
102
RTVSPropertyOp0
 70
     1
102
RTVSPropertyOp1
 70
     1
102
RTVSPropertyOp2
 70
     1
102
RTVSPropertyOp3
 70
     1
102
RTVSPropertyOp4
 70
     1
102
RTVSPropertyOp5
 70
     1
102
RTVSPropertyOp6
 70
     1
102
RTVSPropertyOp7
 70
     1
102
RTVSPropertyOp8
 70
     1
102
RTVSPropertyOp9
 70
     1
102
RTVSPropertyOp10
 70
     1
102
RTVSPropertyOp11
 70
     1
102
RTVSPropertyOp12
 70
     1
102
RTVSPropertyOp13
 70
     1
102
RTVSPropertyOp14
 70
     1
102
RTVSPropertyOp15
 70
     1
102
RTVSPropertyOp16
 70
     1
102
RTVSPropertyOp17
 70
     1
102
RTVSPropertyOp18
 70
     1
102
RTVSPropertyOp19
 70
     1
102
RTVSPropertyOp20
 70
     1
102
RTVSPropertyOp21
 70
     1
102
RTVSPropertyOp22
 70
     1
102
RTVSPropertyOp23
 70
     1
102
RTVSPropertyOp24
 70
     1
102
RTVSPropertyOp25
 70
     1
102
RTVSPropertyOp26
 70
     1
102
RTVSPropertyOp27
 70
     1
102
RTVSPropertyOp28
 70
     1
102
RTVSPropertyOp29
 70
     1
102
RTVSPropertyOp30
 70
     1
102
RTVSPropertyOp31
 70
     1
102
RTVSPropertyOp32
 70
     1
102
RTVSPropertyOp33
 70
     1
102
RTVSPropertyOp34
 70
     1
102
RTVSPropertyOp35
 70
     1
102
RTVSPropertyOp36
 70
     1
102
RTVSPropertyOp37
 70
     1
102
RTVSPropertyOp38
 70
     1
102
RTVSPropertyOp39
 70
     1
102
RTVSPropertyOp40
 70
     1
102
RTVSPropertyOp41
 70
     1
102
RTVSPropertyOp42
 70
     1
102
RTVSPropertyOp43
 70
     1
102
RTVSPropertyOp44
 70
     1
102
RTVSPropertyOp45
 70
     1
102
RTVSPropertyOp46
 70
     1
102
RTVSPropertyOp47
 70
     1
102
RTVSPropertyOp48
 70
     1
102
RTVSPropertyOp49
 70
     1
102
RTVSPropertyOp50
 70
     1
102
RTVSPropertyOp51
 70
     0
102
RTVSPropertyOp52
 70
     0
102
RTVSPropertyOp53
 70
     1
102
RTVSPropertyOp54
 70
     1
102
RTVSPropertyOp55
 70
     1
102
RTVSPropertyOp56
 70
     1
102
RTVSPropertyOp57
 70
     1
102
RTVSPost2010Prop28
280
     0
102
RTVSPost2010PropOp28
 70
     1
102
RTVSPost2010Prop29
280
     1
102
RTVSPost2010PropOp29
 70
     1
102
RTVSPost2010Prop30
280
     1
102
RTVSPost2010PropOp30
 70
     1
102
RTVSPost2010Prop31
280
     0
102
RTVSPost2010PropOp31
 70
     1
102
RTVSPost2010Prop32
280
     0
102
RTVSPost2010PropOp32
 70
     1
102
RTVSPost2010Prop33
280
     0
102
RTVSPost2010PropOp33
 70
     1
102
RTVSPost2010Prop34
280
     0
102
RTVSPost2010PropOp34
 70
     1
102
RTVSPost2010Prop35
280
     0
102
RTVSPost2010PropOp35
 70
     1
102
RTVSPost2010Prop36
280
     0
102
RTVSPost2010PropOp36
 70
     1
102
RTVSPost2010Prop37
 90
       50
102
RTVSPost2010PropOp37
 70
     1
102
RTVSPost2010Prop38
140
0.0
102
RTVSPost2010PropOp38
 70
     1
102
RTVSPost2010Prop39
140
1.0
102
RTVSPost2010PropOp39
 70
     1
102
RTVSPost2010Prop40
 90
        0
102
RTVSPost2010PropOp40
 70
     1
102
RTVSPost2010Prop41ColorIndex
 90
       18
102
RTVSPost2010Prop41ColorRGB
 90
        0
102
RTVSPost2010PropOp41
 70
     1
102
RTVSPost2010Prop42
 90
       50
102
RTVSPost2010PropOp42
 70
     1
102
RTVSPost2010Prop43
 90
        3
102
RTVSPost2010PropOp43
 70
     1
102
RTVSPost2010Prop44ColorIndex
 90
        5
102
RTVSPost2010Prop44ColorRGB
 90
      255
102
RTVSPost2010PropOp44
 70
     1
102
RTVSPost2010Prop45
280
     0
102
RTVSPost2010PropOp45
 70
     1
102
RTVSPost2010Prop46
 90
       50
102
RTVSPost2010PropOp46
 70
     1
102
RTVSPost2010Prop47
 90
       50
102
RTVSPost2010PropOp47
 70
     1
102
RTVSPost2010Prop48
 90
       50
102
RTVSPost2010PropOp48
 70
     1
102
RTVSPost2010Prop49
280
     0
102
RTVSPost2010PropOp49
 70
     1
102
RTVSPost2010Prop50
 90
       50
102
RTVSPost2010PropOp50
 70
     1
102
RTVSPost2010Prop51ColorIndex
 90
      256
102
RTVSPost2010Prop51ColorRGB
 90
-16777216
102
RTVSPost2010PropOp51
 70
     0
102
RTVSPost2010Prop52
140
1.0
102
RTVSPost2010PropOp52
 70
     0
102
RTVSPost2010Prop53
 90
        2
102
RTVSPost2010PropOp53
 70
     1
102
RTVSPost2010Prop54
  1
strokes_ogs.tif
102
RTVSPost2010PropOp54
 70
     1
102
RTVSPost2010Prop55
280
     0
102
RTVSPost2010PropOp55
 70
     1
102
RTVSPost2010Prop56
140
1.0
102
RTVSPost2010PropOp56
 70
     1
102
RTVSPost2010Prop57
140
1.0
102
RTVSPost2010PropOp57
 70
     1
  0
XRECORD
  5
18A
102
{ACAD_REACTORS
330
189
102
}
330
189
100
AcDbXrecord
280
     1
102
RTVSPropertyOp0
 70
     1
102
RTVSPropertyOp1
 70
     1
102
RTVSPropertyOp2
 70
     1
102
RTVSPropertyOp3
 70
     1
102
RTVSPropertyOp4
 70
     1
102
RTVSPropertyOp5
 70
     1
102
RTVSPropertyOp6
 70
     1
102
RTVSPropertyOp7
 70
     1
102
RTVSPropertyOp8
 70
     1
102
RTVSPropertyOp9
 70
     1
102
RTVSPropertyOp10
 70
     1
102
RTVSPropertyOp11
 70
     1
102
RTVSPropertyOp12
 70
     1
102
RTVSPropertyOp13
 70
     1
102
RTVSPropertyOp14
 70
     1
102
RTVSPropertyOp15
 70
     1
102
RTVSPropertyOp16
 70
     1
102
RTVSPropertyOp17
 70
     1
102
RTVSPropertyOp18
 70
     1
102
RTVSPropertyOp19
 70
     1
102
RTVSPropertyOp20
 70
     1
102
RTVSPropertyOp21
 70
     1
102
RTVSPropertyOp22
 70
     1
102
RTVSPropertyOp23
 70
     1
102
RTVSPropertyOp24
 70
     1
102
RTVSPropertyOp25
 70
     1
102
RTVSPropertyOp26
 70
     1
102
RTVSPropertyOp27
 70
     1
102
RTVSPropertyOp28
 70
     1
102
RTVSPropertyOp29
 70
     1
102
RTVSPropertyOp30
 70
     1
102
RTVSPropertyOp31
 70
     1
102
RTVSPropertyOp32
 70
     1
102
RTVSPropertyOp33
 70
     1
102
RTVSPropertyOp34
 70
     1
102
RTVSPropertyOp35
 70
     1
102
RTVSPropertyOp36
 70
     1
102
RTVSPropertyOp37
 70
     1
102
RTVSPropertyOp38
 70
     1
102
RTVSPropertyOp39
 70
     1
102
RTVSPropertyOp40
 70
     1
102
RTVSPropertyOp41
 70
     1
102
RTVSPropertyOp42
 70
     1
102
RTVSPropertyOp43
 70
     1
102
RTVSPropertyOp44
 70
     1
102
RTVSPropertyOp45
 70
     1
102
RTVSPropertyOp46
 70
     1
102
RTVSPropertyOp47
 70
     1
102
RTVSPropertyOp48
 70
     1
102
RTVSPropertyOp49
 70
     1
102
RTVSPropertyOp50
 70
     1
102
RTVSPropertyOp51
 70
     0
102
RTVSPropertyOp52
 70
     0
102
RTVSPropertyOp53
 70
     1
102
RTVSPropertyOp54
 70
     1
102
RTVSPropertyOp55
 70
     1
102
RTVSPropertyOp56
 70
     1
102
RTVSPropertyOp57
 70
     1
102
RTVSPost2010Prop28
280
     0
102
RTVSPost2010PropOp28
 70
     1
102
RTVSPost2010Prop29
280
     1
102
RTVSPost2010PropOp29
 70
     1
102
RTVSPost2010Prop30
280
     1
102
RTVSPost2010PropOp30
 70
     1
102
RTVSPost2010Prop31
280
     0
102
RTVSPost2010PropOp31
 70
     1
102
RTVSPost2010Prop32
280
     0
102
RTVSPost2010PropOp32
 70
     1
102
RTVSPost2010Prop33
280
     0
102
RTVSPost2010PropOp33
 70
     1
102
RTVSPost2010Prop34
280
     0
102
RTVSPost2010PropOp34
 70
     1
102
RTVSPost2010Prop35
280
     0
102
RTVSPost2010PropOp35
 70
     1
102
RTVSPost2010Prop36
280
     0
102
RTVSPost2010PropOp36
 70
     1
102
RTVSPost2010Prop37
 90
       50
102
RTVSPost2010PropOp37
 70
     1
102
RTVSPost2010Prop38
140
0.0
102
RTVSPost2010PropOp38
 70
     1
102
RTVSPost2010Prop39
140
1.0
102
RTVSPost2010PropOp39
 70
     1
102
RTVSPost2010Prop40
 90
        0
102
RTVSPost2010PropOp40
 70
     1
102
RTVSPost2010Prop41ColorIndex
 90
       18
102
RTVSPost2010Prop41ColorRGB
 90
        0
102
RTVSPost2010PropOp41
 70
     1
102
RTVSPost2010Prop42
 90
       50
102
RTVSPost2010PropOp42
 70
     1
102
RTVSPost2010Prop43
 90
        3
102
RTVSPost2010PropOp43
 70
     1
102
RTVSPost2010Prop44ColorIndex
 90
        5
102
RTVSPost2010Prop44ColorRGB
 90
      255
102
RTVSPost2010PropOp44
 70
     1
102
RTVSPost2010Prop45
280
     0
102
RTVSPost2010PropOp45
 70
     1
102
RTVSPost2010Prop46
 90
       50
102
RTVSPost2010PropOp46
 70
     1
102
RTVSPost2010Prop47
 90
       50
102
RTVSPost2010PropOp47
 70
     1
102
RTVSPost2010Prop48
 90
       50
102
RTVSPost2010PropOp48
 70
     1
102
RTVSPost2010Prop49
280
     0
102
RTVSPost2010PropOp49
 70
     1
102
RTVSPost2010Prop50
 90
       50
102
RTVSPost2010PropOp50
 70
     1
102
RTVSPost2010Prop51ColorIndex
 90
      256
102
RTVSPost2010Prop51ColorRGB
 90
-16777216
102
RTVSPost2010PropOp51
 70
     0
102
RTVSPost2010Prop52
140
1.0
102
RTVSPost2010PropOp52
 70
     0
102
RTVSPost2010Prop53
 90
        2
102
RTVSPost2010PropOp53
 70
     1
102
RTVSPost2010Prop54
  1
strokes_ogs.tif
102
RTVSPost2010PropOp54
 70
     1
102
RTVSPost2010Prop55
280
     0
102
RTVSPost2010PropOp55
 70
     1
102
RTVSPost2010Prop56
140
1.0
102
RTVSPost2010PropOp56
 70
     1
102
RTVSPost2010Prop57
140
1.0
102
RTVSPost2010PropOp57
 70
     1
  0
ENDSEC
  0
EOF
